Skip to navigation

malaykord_image Download Malaykord Guitar Apps Right Now!
malaykord_image Download Malaykord Guitar Apps Right Now!
Chord List: 09 | A | B | C | D | E | F | G | H | I | J | K | L | M | N | O | P | Q | R | S | T | U | V | W | X | Y | Z | NEW
09 | A | B | C | D | E | F | G | H | I | J | K | L | M | N | O | P | Q | R | S | T | U | V | W | X | Y | Z | NEW | TOP

List Guitar Chord X



List Guitar Chord X

Home > > > List Guitar Chord X


XPDC
Xpose Band


#Malaykord



Title: List Guitar Chord X
Artist: List
Review:
Author:
Rate: 4 dari 5
Posted On:


✓ Jika ada sebarang masalah tentang chord lagu diatas sila buat aduan pada Form Report Chord yang disediakan.[REPORT CHORDS]



XPDC - Titian perjalanan Chord



XPDC - Titian perjalanan Chord

Home > > > XPDC - Titian perjalanan Chord


capo fret 3


intro
   Am   C  G 2x
 
   Am                  G
   Siulan kedamaian nanti kepulangan
        C
   Saat ditunggu hampir luput
   F                Dm           E
   Tenang kurindukan bayangan semalam
   Am                     G
   Sedetik kita bertemu dalam impianku
          C
   Tak pernah luput gambaranku
   F               Dm        E
   Bina cinta satu kemari sayangku



   Am                    G
   Seminit kita berlagu ada lagi waktu
          C
   Dengan ingatan tulus insan
   F                 Dm         E
   Kita makhluk tuhan kita dijadikan




        Am        F              G
   Perjalanan dititian masa kita perlukan
   Am       F     G
   Perjalanan masa kita


         C          F
   Zaman berzaman teguh ikatan
         G         C              Am
   Sempurna insan itu harapan padaku
    F       G
   Aku harapkan
         C            F
   Zaman berzaman tinggal harapan
        G          C                  Am
   Semurni kasih kita dendangkan berlagu
    F        G
   Aku nyanyikan

  solo

  C     G     Dm      E

  F     G    
 
  C     G     Dm      E

  F     G

       Am        F              G
   Perjalanan dititian masa kita perlukan
   Am       F     G
   Perjalanan masa kita
Videos


#Malaykord



Title: XPDC - Titian perjalanan Chord
Artist: XPDC
Review:
Author:
Rate: 4 dari 5
Posted On:


✓ Jika ada sebarang masalah tentang chord lagu diatas sila buat aduan pada Form Report Chord yang disediakan.[REPORT CHORDS]



XPDC - Teman Chord



XPDC - Teman Chord

Home > > > XPDC - Teman Chord


E-----------------------------------
B-----------------------------------
G----------------------------------- pluck Am 2X
D---------0---0h2-0---------------0-
A-0-2-3-------------------0---0h2---
E---------------------3-------------



Am
   Suatu petang yang damai
Am
   Kau kulihat
           Dm
   Menanti seorang teman
                  Am
   Teman yang tak datang



Am
   Engkauku perhatikan
Am
   Setia lagi
      Dm
   Apalagi yang dinanti
                       Am
   Teman yang tak akan datang



       F          G
   Biarku pujuk kemari
     E              Am
   Hati yang sedang pilu
   Dm
   Kau genggamlah tanganku
                Am
   Aku bawa kau pergi



          F          G
   Syurga bukan satu hala
   E            Am
   Aku masih di sini
     Dm
   Setelah sekian lama
                Am
   Kau memendam dendam



   Dm
   Kekasihku
         Am
   Tidak datang setelah berjanji
    Dm                    Am
   Aku pun sudah merasakannya
     Dm
   Kita bagaikan
                     Am
   Suatu arah yang menanti sendirian
C          G           Dm
   Walau dalam hujan lebat
Dm
   Ku nanti nanti nanti nanti
           Am
   Sendiri lagi



Am
   Suatu warna yang gelap
Am
   Dahulu hidup penuh
   Dm
   Dengan keseorangan
                Am
   Seorang lagi teman


#Malaykord



Title: XPDC - Teman Chord
Artist: XPDC
Review:
Author:
Rate: 4 dari 5
Posted On:


✓ Jika ada sebarang masalah tentang chord lagu diatas sila buat aduan pada Form Report Chord yang disediakan.[REPORT CHORDS]



XPDC - Semangat Yang Hilang Chord



XPDC - Semangat Yang Hilang Chord

Home > > > XPDC - Semangat Yang Hilang Chord


Intro :
C G Am F Dm G     X2




   C           G
   Jika engkau seorang
   Am           F
   Juang hingga titisan
   Dm            G
   Rempuh tak berharapan



   C         G
   Nanti aku di sana
   Am        F
   Di ufuk pemikiran
   Dm           G
   Lalu menghayatinya



     C           G
   Didalam kubur manapun
   Am        F
   Jasad aku ditanam
   Dm     G
   Aku akulah jua



   C       G
   Kita laksanakan
   Am        F
   Mata hati yang damai
      Dm       G
   Di sana kejujuran




   C       G
   Semarak impian
     F            G
   Segunung harap dipulang
   C         G
   Usahlah diragukan
   F      G
   Keupayaan diri



   C         G
   Hati yang membara
     F           G
   Mengikutkan kata apa
   C          G
   Jawapannya di sini
   F          G
   Semangat kita hilang



F                  G
   Semangat yang hilang oohh
F              G
   Kita cari pulang




    C       F
    Semarak impian
      G            C
    Segunung harap dipulang
    Am        Dm
    Usahlah diragukan
      G       C
    Keupayaan sendiri
    C         F
    Hati yang membara
      G           C
    Mengikutkan kata apa
    Am         Dm
    Jawapannya di sini
      G           C
    Semangat kita yang hilang

Solo :
C G C G
C G Am F  X2
C G Am


   C         F
   Malu bertanya kawan
     G          C
   Sesat cari jalan pulang
   Am      Dm
   Biar ia berkesan
      G          C
   Di lubuk hati terpendam


#Malaykord



Title: XPDC - Semangat Yang Hilang Chord
Artist: XPDC
Review:
Author:
Rate: 4 dari 5
Posted On:


✓ Jika ada sebarang masalah tentang chord lagu diatas sila buat aduan pada Form Report Chord yang disediakan.[REPORT CHORDS]



XPDC - Semangat Perjuangan Harmoni Chord



XPDC - Semangat Perjuangan Harmoni Chord

Home > > > XPDC - Semangat Perjuangan Harmoni Chord


C     G           Am         F        G
   Sememangnya aku rindukan kedamaian ini kekal
 C      G          Am        F         G
   Menempuh hari hari lalu dengan satu belaian.
 F                   G            
   Kasih sayang dijunjung dikepala
 F               G
   Mengatasi segala yang dijuang.
 
 
 
 
 C     G            Am      F         G  
   Sebenarnya hidup disini arahnya berlainan
 C       G          Am   F         G
   Menunggu giliran tiba entah bilakah masanya.
 F              G      
   Selagi nafas terlekat dirongga
 F                  G          
   Selagi langkah terus diperjalanan
 
   
 
 
 C     G         Am      F          G        
   Manusia punya hakikat punya akal dan fikiran
 C     G        Am   F             G
   Melebihi kejadian ciptaaan yang Maha Esa
 F                G  
   Kejujuran pada diri sendiri
 F                G
   Untuk apa dipersembahkan kepada
 
 

 
       C       F         G
   Mereka yang tak punya perasaan
     C   F          G
   Kita ada nilai tersendiri
       C     F          G
   Biarkan mereka yang tersasul
      C    F     G
   Berkata ego menepuk dada
 
   

   C   G         F       G  
   Semangat disimpan selagi
    C    G        F          G
   Ada kesempatan hidup bersama
     C     G       F     G
   Apalah ada pada keindahan
          C    G
   jika jiwa kita
        F      G
   meronta-ronta
 


#Malaykord



Title: XPDC - Semangat Perjuangan Harmoni Chord
Artist: XPDC
Review:
Author:
Rate: 4 dari 5
Posted On:


✓ Jika ada sebarang masalah tentang chord lagu diatas sila buat aduan pada Form Report Chord yang disediakan.[REPORT CHORDS]



XPDC - Segar Dalam Ingatan Chord



XPDC - Segar Dalam Ingatan Chord

Home > > > XPDC - Segar Dalam Ingatan Chord


Am                        Dm
Aku yang masih segar dalam ingatan
                Am
Mengiringi hidupku yang kesepian
               Dm
Lama mungkin akan aku turutkan
                   Am
Jika perlu terus aku perjuangkan
E                F               G
Bila larut malam yang menjadi saksinya

    C          Am
Oh demikian halus ciptaan ini
F                   G
Makin terang di dalam satu rasa
C                   G
Kita yang masih berlari tanpa beriringan
Dm               Am
Lama mungkin aku diperjuangkan
      G               F        
Lamanya mungkin akan ditentukan
F
Mmmm yeyeye

Am                       Dm
Tak perlu takut kemungkinan yang datang
                    Am
Jika ribut pasti juga ada tenang
                 Dm
Lama mungkin hidup di persimpangan
                    Am
Lambat laun nanti aku ketahuan
E                   F                   G
Sudah kelabu mata yang jadi keletihan
G
Yeyeye yeye...

    C                Am
Setiap insan punya nyawa yang tersendiri
F                 G
Terokai hidup dengan nyata ada
C                       G
Kita yang masih terapung bagai di awangan
Dm                  Am
Penantian tetap ada dalam tangan
G            F
Kepastian... kemungkinan...
F
Yeyeye eee...


#Malaykord



Title: XPDC - Segar Dalam Ingatan Chord
Artist: XPDC
Review:
Author:
Rate: 4 dari 5
Posted On:


✓ Jika ada sebarang masalah tentang chord lagu diatas sila buat aduan pada Form Report Chord yang disediakan.[REPORT CHORDS]



XPDC - Sakinah Chord



XPDC - Sakinah Chord

Home > > > XPDC - Sakinah Chord


Intro**
(rhythm)
Main smpai habis akustik part
                C          D         Em
E|--3-2-0-------------------2-----------------0---------|
B|----------------1------------3--------0---------------|
G|-------------------0----2----------------0------------|
D|-------------2-------0-------------2------------------|
A|----------3----------------------2--------------------|
E|------------------------------------------------------|

(Lead) Akustik
E|----------5-----------------------------------------------------------------|
B|--5-7-8----8-7-8-7-5------------------------------------------3/5--3p5------|
G|--------------------------7-5-4-2------------------5-4-2-0------------------|
D|---------------------------------------5-4h5p4--2---------------------------|
A|----------------------------------------------------------------------------|
E|----------------------------------------------------------------------------|

E|--7-8-10-8-7-5-----8-7-5------------------------------------------------------|
B|-------------------------8-7---8--7--5-----7-8-7-5--7-8-7-5--7-8-7-5----------|
G|------------------------------------------------------------------------------|
D|------------------------------------------------------------------------------|
A|------------------------------------------------------------------------------|
E|------------------------------------------------------------------------------|

E|---------------------------------------------------------------------------------------------------------|
B|---8-7-5--------------------------------7h8-8/10--8p7-8p7\5--7-8-7-5--7-8-7-5--7-8-7-5--7-8-7-5--7-8-7-5-|
G|----------7-5-4------------------------------------------------------------------------------------------|
D|------------------7-5-4----------------------------------------------------------------------------------|
A|-------------------------7-5h7-7-------------------------------------------------------------------------|
E|---------------------------------------------------------------------------------------------------------|



Dist part

(Rhythm part)
     E5   C5    D5    E5
E|--------------------------------------------|
B|--------------------------------------------|
G|--------5-----7-----------------------------|
D|---2----5-----7-----2-----------------------|
A|---2----3-----5-----2-----------------------|
E|---0----------------0-----------------------|



(Lead Part)

E|-------------5-------------------|---------5---------------5/7--5h7-7-----|
B|------5-7-8----7h8-7---3--3/5-5--|--5-7-8-----7h8-7--5\3------------------|
G|---------------------------------|----------------------------------------|
D|---------------------------------|----------------------------------------|
A|---------------------------------|----------------------------------------|
E|---------------------------------|---------------------------------- -----|

E|-------------5-----------------|------12-14-15-17-15-14-10-12-10h12-12-10h12-12-10h12-12-10h12--|
B|------5-7-8----7h8-7--3-3/5-5--|---12-----------------------------------------------------------|
G|-------------------------------|----------------------------------------------------------------|
D|-------------------------------|----------------------------------------------------------------|
A|-------------------------------|----------------------------------------------------------------|
E|-------------------------------|-----=----------------------------------------------------------|





  Em
Asalnya
 C        D           Em
Memang dulu aku tak percaya
 C            D        Em
Sehingga ku jumpa Sakinah
 C            D         Em
Cinta boleh mencair segala
 C              D           Em
Biar keras bagai teras buana

 Em     C             D          Em
Katakan cantik mana aku tak tergoda
 C          D        Em
Sehingga ku jumpa Sakinah
  C               D         Em
Pintu hati yang tertutup terbuka
C                    D
Datang azam nak mengolah

G        Am
Rancak dunia
  B            C          
Berlagu tipu daya
    D
Mustakim semula


  Em
Biarlah
 C               D         Em
Orang-orang macam aku bahagia
 C          D              Em
Orang-orang macam aku merdeka
  C
Tutup mata
    D           Em
Buka mata Sakinah
    C
Dalam lena
      D        Em
Dalam jaga Sakinah


 C        D     Em
Bila kenal Sakinah
 C         D          Em
Kenal diri siapa sebenar

Em          C
Cairlah segalanya
    Em        C              D    Em
Yang tinggal hanya benar


#Malaykord



Title: XPDC - Sakinah Chord
Artist: XPDC
Review:
Author:
Rate: 4 dari 5
Posted On:


✓ Jika ada sebarang masalah tentang chord lagu diatas sila buat aduan pada Form Report Chord yang disediakan.[REPORT CHORDS]



XPDC - Pontianak Chord



XPDC - Pontianak Chord

Home > > > XPDC - Pontianak Chord


Intro:  C Am G F }2X

        C                    Am
        Pontianak dengarlah lagu
        F                   G
        Nyanyianku hanya untukmu
                C     Am
        Ku pinta supaya kamu
               F      G
        Gembira selalu

        C                   Am
        Pontianak jangan meradang
             F                      G
        Dengarlah dendang tidurlah sayang
                C     Am
        Ku pinta supaya kamu
               F      G
        Gembira selalu
            C   Am   F   G
        O.. O.. O.. O..      }2X


#Malaykord



Title: XPDC - Pontianak Chord
Artist: XPDC
Review:
Author:
Rate: 4 dari 5
Posted On:


✓ Jika ada sebarang masalah tentang chord lagu diatas sila buat aduan pada Form Report Chord yang disediakan.[REPORT CHORDS]



XPDC - Nafisa Chord



XPDC - Nafisa Chord

Home > > > XPDC - Nafisa Chord


Intro

        ----------------
        --------------1-
        ----0--0-----2--    1st, 2nd, 4th
        ---2--2-----2---
        --3--2---2-0----
        --------3-------

        --------------1-
        -------------3--
        ----0--0----2---    3rd
        ---2--2----0----
        --3--2----2-----
        ---------3------



C                 G
   Dikeheningan malam ini
Dm              Am
   Aku dihimpit kenangan
C                G
   Sejarah cinta mengajarku
             F
   Sepanjang hari
             G
   Sepanjang malam



Am               G
   Dibenakku kau sentiasa
        F
   Lalu menukar jiwa
           G               Am
   Jadi sentimental hati lelaki ini




                    Dm
   Terkadang perjalanan jauh
G                  C
   Yang kan mampu aku menapak
               F
   Pendakian gunung yang tinggi
            G                     Am
   Lembah jurang yang ngeri aku harungi



                 Dm
   Biarkan dunia beredar
G              C
   Rentak sama kita berlari
                F
   Menuju titik permulaan
           G               Am
   Belum tahu dimana ia berakhir


#Malaykord



Title: XPDC - Nafisa Chord
Artist: XPDC
Review:
Author:
Rate: 4 dari 5
Posted On:


✓ Jika ada sebarang masalah tentang chord lagu diatas sila buat aduan pada Form Report Chord yang disediakan.[REPORT CHORDS]



XPDC - Monggol Dah Pulang Chord



XPDC - Monggol Dah Pulang Chord

Home > > > XPDC - Monggol Dah Pulang Chord


Intro
1st gitar
         5x                
-----------------------|-----------------------------------------------------------
-----------------------|-----------------------------------------------------------
-----------------------|-----------------------------------------------------------
-----------------------|--4/5--5-5--4/5--5-7----7-7-7-7-7--------------------------
---4/5--5-5--4/5--5-7--|--2/3--3-3--2/3--3-5----5-5-5-5-5--5-5-5-5-----------------
---2/3--3-3--2/3--3-5--|-----------------------------------3-3-3-3-----------------
2nd gitar
        3x
-----------------|-----------------------------------------------------------------
-----------------|-----------------------------------------------------------------
-----------------|-----------------------------------------------------------------
--7-77----9-12---|-9-99------9-12--11-1111------11--14-12-------7-9-12-------------
-------99--------|------1010---------------1212---------------9--------------------
-----------------|-----------------------------------------------------------------

1st gitar
       
-----------------------|-----------------------------------------------------------
-----------------------|-----------------------------------------------------------
-----------------------|-----------------------------------------------------------
-----------------------|--4/5--5-5--4/5--5-7----7-7-7-7-7--------------------------
---4/5--5-5--4/5--5-7--|--2/3--3-3--2/3--3-5----5-5-5-5-5--5-----------------------
---2/3--3-3--2/3--3-5--|-----------------------------------3-----------------------
2nd gitar        
-----------------|-----------------------------------------------------------------
-----------------|-----------------------------------------------------------------
-----------------|-----------------------------------------------------------------
--7-77----9-12---|-9-99------9-12--11-1111------11--14-12--------------------------
-------99--------|------1010---------------1212------------------------------------
-----------------|-----------------------------------------------------------------

         4x
-------------------------|----------------------------------------------------------
-------------------------|----------------------------------------------------------
-------------------------|----------------------------------------------------------
--------------------5-7--|----------------------------------------------------------
--5--5555-4-5-55----3-5--|-5-555555-5-5/12/5----------------------------------------
--3--3333-2-3-33---------|-3-333333-3-3/10/3----------------------------------------
     <-pm------->            <-pm->
    oi! oi! oi!

          G
Di Luar Goyang Di Dalam Goncang
           G
Bergema Gendang Monggol Dah Pulang
          C             D
Ke Mana Hilang Perwira Kita
         G
Penjaga Kota
          C               D
Ke Mana Hilang Panglima Kita
           G
Pembela Bangsa

             G
Di Luar Goyang Di Dalam Goncang
            G
Belum Berperang Monggol Dah Menang
           C                D
Bagdad Tercinta Bagaikan Bunga
         G
Pudar Serinya
         C              D      
Sinar Tamadun Bagaikan Api
          B    A          G    F#     Em
Disiram Hujan Tinggalkah Bara Menanti Percik
        A
Batu Dilaga
        B     A      G       F#     Em          
Tangan Siapa Tangan Bertuah  Tangan Berjasa
        A
Dalam Berjuta
        G
la Berjaya
          F#              G                                   A
Hari Dah Siang Menteri Jelang Monggol Dah Pulang Monggol Dah Pulang
          F#              G                                    A
Hari Dah Siang Mentari Jelang Monggol Dah Pulang Monggol Dah Pulang
            B       G        A          
Namun Panji Ku Masih Setengah Tiang
            B        G           A      
Namun Mimpi Ku Masih Terus Terus Terhalang
            B         G            A
Namun Manisku Masih Lagi Lagi Terkenang
             B        G            A
Namun Langkahku Masih Belum Belum Terancang
           G
Masih Terumbang

Solo
    G        Em         C          D           2x        G
---------------------------------------------------|----------------------------------
---------------------------------------------------|----------------------------------
---------------------------------------------------|----------------------------------
------------------------------2-2-5------4-4-7-----|----------------------------------
--------22-5---------2---3-33-------5-55-----------|----------------------------------
--3--33------0-00-33-------------------------------|-----3-3333333--------------------
  G         Em         C       D      x2     G        Em
-----------------------------------------|--------------------------------------------
-----------------------------------------|--------------------------------------------
--------------------4--5-4-------4-------|---777-5-4--777-5-4-------------------------
--5-55-77-9-------5--------7-5-7---7-----|--------------------------------------------
-------------7-77------------------------|--------------------------------------------
-----------------------------------------|--------------------------------------------

 C       D              G        Em   C      D     G
-------------------------------------10-8-88-7-----10p8p7------7-------------------10-
--------------787-----8-10-8--88-7-------------10---------10p8---10p8p7-10-8p7--------
-777-545-77-7-----777--------------9-------------------------------------------9-7----
--------------------------------------------------------------------------------------
--------------------------------------------------------------------------------------
--------------------------------------------------------------------------------------
                                                                           &n bsp;       P.H.
          G
Di Luar Goyang Di Dalam Goncang
           G
Bergema Gendang Monggol Dah Pulang
          C             D
Ke Mana Hilang Perwira Kita
         G
Penjaga Kota
          C               D
Ke Mana Hilang Panglima Kita
           G
Pembela Bangsa
             G
Di Luar Goyang Di Dalam Goncang
            G
Belum Berperang Monggol Dah Menang
           C                D
Bagdad Tercinta Bagaikan Bunga
         G
Pudar Serinya
         C              D      
Sinar Tamadun Bagaikan Api
          B    A          G    F#     Em
Disiram Hujan Tinggalkah Bara Menanti Percik
        A
Batu Dilaga
        B     A      G       F#     Em          
Tangan Siapa Tangan Bertuah  Tangan Berjasa
        A
Dalam Berjuta
        G
la Berjaya
          F#              G                                   A
Hari Dah Siang Menteri Jelang Monggol Dah Pulang Monggol Dah Pulang
          F#              G                                    A
Hari Dah Siang Mentari Jelang Monggol Dah Pulang Monggol Dah Pulang
          F#              G                                  A
Di Luar Goyang Di Dalam Goncang Bergema Gendang Monggol Dah Pulang
            F#             G                                  A
Di Luar Goyang Di Dalam Goncang Belum Berperang Monggol Dah Menang
           B        G        A          
Namun Panji Ku Masih Setengah Tiang
            B        G           A      
Namun Mimpi Ku Masih Terus Terus Terhalang
            B         G            A
Namun Manisku Masih Lagi Lagi Terkenang
             B        G            A
Namun Langkahku Masih Belum Belum Terancang
            B        G        A          
Namun Panji Ku Masih Setengah Tiang
            B        G           A      
Namun Mimpi Ku Masih Terus Terus Terhalang
          G
Masih Terumbang
                     5x
---------------------------|-----7-----------------------------------------------------
---------------------------|-----12--12p10-8-10-8-7------------------------------------
---------------------------|------------------------7-5-4------------------------------
-------------------55-77---|-------------------------------5--7-----5------------------
--------55-22------33-55---|----------------------------------------5------------------
--3-333-------3333---------|----------------------------------------3------------------
<----------p.m.---------->

p.m.= palm mute
p.h.= pinch harmonic
p   = pull off
h   = hammer on
/   = slide


#Malaykord



Title: XPDC - Monggol Dah Pulang Chord
Artist: XPDC
Review:
Author:
Rate: 4 dari 5
Posted On:


✓ Jika ada sebarang masalah tentang chord lagu diatas sila buat aduan pada Form Report Chord yang disediakan.[REPORT CHORDS]



XPDC - Langsung Tak Faham Chord



XPDC - Langsung Tak Faham Chord

Home > > > XPDC - Langsung Tak Faham Chord


D             Em
   Kata hari ini
              G
   Kotakan janji
            D
   Usah ditangisi



D                    Em
   Hidup yang sementara
               G
   Sekelip berubah
             D
   Sekelip berubah



Bm           F#m
   Penantian ini kehausan
       G
   Kerana aku sedang
Gm             D
   Di padang pasir



D               Em
   Perjalanan jauh
              G
   Tanpa tafsiran
            D
   Itulah pedoman



Bm            F#m
   Tidak kira waktunya tiba
         G
   Pasti geraknya bermula
Gm          D
   Gerak bermula
Gm          D
   Gerak bermula



A
   Dan aku juga
        D
   Sama-sama
F#                  Bm
   Mahu mengerti maksudnya yang nyata
G             A
   Ianya terselindung
Em                  A
   Oh... di dalam bayangan



        D
   Perlukah
       F#m                Bm
   Kau pertahankan segala dosa
Em              A
   Kerana semua itu
       D
   Ada waktu
       Bm
   Ada waktunya
Em         A
   Di mana janji



         D
   Dan tiba
       F#m                 Bm
   Dikala fajar pun mula menyinsing
Em                A
   Dan menutupi malam
       D
   Meratapi
           Bm
   Oh... susahnya
Em             A
   Dari mana hadirnya
          D
   Oh...



        D
   Perlukah
       F#m                Bm
   Kau pertahankan segala dosa
Em              A
   Kerana semua itu
Em                A
   Ada waktu-waktunya



         D
   Dan kita
       F#m                 Bm
   Dikala fajar pun mula menyinsing
Em                A
   Dan menutupi malam
       D
   Meratapi
           Bm
   Oh... susahnya
Em             A
   Dari mana hadirnya



        D
   Perlukah
       F#m                Bm
   Kau pertahankan segala dosa
Em               A
   Kerana semua itu
Em                A
   Ada waktu-waktunya
        D
   Di mana janji
       Bm
   Ada waktunya
Em        A
   Aku tempuhi
Em            A
   Dan aku tempuhi



#Malaykord



Title: XPDC - Langsung Tak Faham Chord
Artist: XPDC
Review:
Author:
Rate: 4 dari 5
Posted On:


✓ Jika ada sebarang masalah tentang chord lagu diatas sila buat aduan pada Form Report Chord yang disediakan.[REPORT CHORDS]



XPDC - Lagu Tiga Kupang Chord



XPDC - Lagu Tiga Kupang Chord

Home > > > XPDC - Lagu Tiga Kupang Chord


Chord
      E5  F5  F#5(i)   F#5(ii)   C#5(i)   C#5(ii)   C5   B5(i)   B5(ii)
  G------------------------------------------------------------------
  D---------------------11-----------------6--------5------------4---
  A---2----3--4---------9---------11-------4--------3----9-------2---
  E---0----1--2-------------------9----------------------7-----------



 F#5(i)
 Lagu tiga kupang
 sagu penuh padi
 C#5(ii)
 enam ekor burung
                F#5(i)
 masok dalam kuali
 bila sudah masak
 burung nyanyi saja
 C#5(ii)
 tentu sedap makan
             F#5(i)
 beri pada raja
 B5(i)
 Raja dalam rumah
 F#5(ii)
 buat kira kira
 B5(i)
 suri dalam dapur
 C#5(i)               slide back to F#5(i)
 makan roti gula
  F#5(i)
 dayang tepi kolam
 mahu jemur tepung
 C#5(ii)
 datang burung hitam
                F#5(i)
 masok batang hidung,
          E5 F5 F#5(i)
              hidung,
          E5 F5 F#5(i)
              hidung,
          E5 F5 F#5(i)  
              hidung,
          E5 F5 F#5(i)
              hidung.


#Malaykord



Title: XPDC - Lagu Tiga Kupang Chord
Artist: XPDC
Review:
Author:
Rate: 4 dari 5
Posted On:


✓ Jika ada sebarang masalah tentang chord lagu diatas sila buat aduan pada Form Report Chord yang disediakan.[REPORT CHORDS]



XPDC - Hijau Bumi Tuhan Chord



XPDC - Hijau Bumi Tuhan Chord

Home > > > XPDC - Hijau Bumi Tuhan Chord


XPDC - Hijau Bumi Tuhan

Intro riff 1 x2
e|---------------------------------------------------------------------------|
B|--7--7-5--5----------------------------------------------------------------|
G|------------7--7-6--6-4-2-2/4----6-----------------------------------------|
D|---------------------------------------------------------------------------|
A|---------------------------------------------------------------------------|
E|---------------------------------------------------------------------------|
    D    C#m  Bm   A          G     A


Intro riff 2 x2
e|------0-3-2-0--------------------------------------------------------------|
B|----3---------3-2---3-2-0----8-8-8-7-5-3-3/7-5-5---------------------------|
G|--2------------------------------------------------------------------------|
D|---------------------------------------------------------------------------|
A|---------------------------------------------------------------------------|
E|---------------------------------------------------------------------------|
                  Bm       G                A

    D         Bm
Sekali ku memandang
   G         A
Kehijauan saujana mata
    D        Bm
Semusim yang benderang
   G         A
Hati riang nikmatnya tuhan

 F#m     G      A
Kita belalah bersama-sama
 F#m     G      A
Kita jagalah harmoninya

    D         Bm
Semusim ia datang
   G         A
Keindahan ciptaan tuhan
    D         Bm
Hijau yang terbentang
   G         A
Makhluk tuhan bermesra-mesra

 F#m     G      A
Kita belalah bersama-sama
 F#m     G      A
Kita jagalah harmoninya

  D            Bm
Damai terperi kicau bernyanyi
  Em           A
Burung berkicauan riang terbang
  D            Bm
Ombak menghempas pantai menanti
  Em           A
Indah biru laut ini pasti

  D            Bm
Salam diberi insan di bumi
  Em           A
Itu nikmat hari..hari ini
  D            Bm
Tegur dan sapa senyum ketawa
  Em           A
Itu tanda kita riang ria

   G         A
Abadikan keindahan ini


#Malaykord



Title: XPDC - Hijau Bumi Tuhan Chord
Artist: XPDC
Review:
Author:
Rate: 4 dari 5
Posted On:


✓ Jika ada sebarang masalah tentang chord lagu diatas sila buat aduan pada Form Report Chord yang disediakan.[REPORT CHORDS]



XPDC - Hidup Bersama Chord



XPDC - Hidup Bersama Chord

Home > > > XPDC - Hidup Bersama Chord


 Am
   Di tepi pantai yang indah
                       G
   Aku duduk seorang diri
        F    E
   Suasana sepi



   Am
   Teringat engkau di waktu malam
                         G
   Wajah mu selalu ku terbayang
        F          E
   Pada mu wahai sayang



   Dm                    Am
   Aku meratap meratap merayu
     Dm                  E
   Pada dewi puspita hatiku



   Am
   Aku tidak lupa akan janjimu
                             G
   Di waktu pertemuan kita dahulu
            F             E
   Hidup bersama disampingku


#Malaykord



Title: XPDC - Hidup Bersama Chord
Artist: XPDC
Review:
Author:
Rate: 4 dari 5
Posted On:


✓ Jika ada sebarang masalah tentang chord lagu diatas sila buat aduan pada Form Report Chord yang disediakan.[REPORT CHORDS]



XPDC - Hentian Ini Chord



XPDC - Hentian Ini Chord

Home > > > XPDC - Hentian Ini Chord


Intro: Cm G# 4x

Cm      G#     Bb                    Cm
Di hentian ini    tertinggal dalam kesunyian
        G#     Bb                     Cm
Di hentian ini    bersama bayang menjelma

Cm       G#        Bb               Cm
Kau nyalakan cinta    terbakar jiwa begini
         G#        Bb                 Cm
Kau curahkan rasa     hanyut di lautan api


chorus:
Fm               G#     Bb             G
   Sedang aku berkelana    pahit manis aku rindu
Fm              G#              Bb
   Hingga aku diasyikkan sejuta mimpi
     D#        Dm    Cm   Bb
   Sebuah mahligai impian
           G#              Bb
   Akan ku turuti walaupun aku
       D#     Dm         Cm     Bb
   Tak tahu lagi ke mana arahnya
             G#            Bb           Cm
   Tak ingin aku hancur sendiri dimakan waktu


Cm       G#     Bb                    Cm
Kau di mana jua   terdamping di dalam hatiku
        G#       Bb                 Cm
Kau apa pun kita   tetap di hentian ini


solo: Fm Bb Eb G
      Fm Bb Eb Fm G G# Bb Cm


#Malaykord



Title: XPDC - Hentian Ini Chord
Artist: XPDC
Review:
Author:
Rate: 4 dari 5
Posted On:


✓ Jika ada sebarang masalah tentang chord lagu diatas sila buat aduan pada Form Report Chord yang disediakan.[REPORT CHORDS]



XPDC - Curahan Rasa Chord



XPDC - Curahan Rasa Chord

Home > > > XPDC - Curahan Rasa Chord


Intro :

F#m G#m A D E 2X
F#m D E F#m 2X
F#m....

F#m  C#
Tika begini
Bm             F#m
Aku juga mengerti
F#m               Bm
Perasaanku terganggu
G#m     C#     F#m.....
Malam penuh dengan bintang


        C#
Indah khabar rupamu
Bm               F#m
Menawan setiap waktu
F#m            Bm      D-C#
Apalagi yang dinantikan
C#                     F#m
Bukan bertepuk sebelah tangan

Bm                    F#m
Cintaku tidak aku pastikan sampai tujuan
     Bm  D-C#
Berarak mendung hitam
C#                 F#m......
Berlagu sepi semalam

    C#
Aku hanya seorang insan
Bm              F#m
Tak mampu keajaiban
F#m              Bm        D-C#
Jika perluku kau tinggalkan
C#                  F#m  
Demi relakan kemanusiaan..

Bm
Sejernih kasih
                  F#m
Selembut sinar mutiara
F#m                 Bm  D-C#
Melayan kau yang lembut
C#                  F#m
Tak dapat aku melupakan

Bm
Sentuhan kasih
        F#m
Irama merdu dalam dakapan
F#m             Bm  D-C#
Suara yang membisik
C#                            F#m
Bagai gelora yang menghempas pantai.

Solo (2:46) D F#m D E F#m

Bm
Sejernih kasih
                  F#m
Selembut sinar mutiara
F#m                 Bm  D-C#
Melayan kau yang lembut
C#                  F#m
Tak dapat aku melupakan

Bm
Sentuhan kasih
        F#m
Irama merdu dalam dakapan
F#m             Bm  D-C#
Suara yang membisik
C#                            F#m
Bagai gelora yang menghempas pantai

    C#
Aku hanya seorang insan
Bm              F#m
Tak mampu keajaiban
F#m              Bm        D-C#
Jika perluku kau tinggalkan
C#                  F#m  
Demi relakan kemanusiaan..


#Malaykord



Title: XPDC - Curahan Rasa Chord
Artist: XPDC
Review:
Author:
Rate: 4 dari 5
Posted On:


✓ Jika ada sebarang masalah tentang chord lagu diatas sila buat aduan pada Form Report Chord yang disediakan.[REPORT CHORDS]



XPDC - CT Cinta Kenangan Silam Chord



XPDC - CT Cinta Kenangan Silam Chord

Home > > > XPDC - CT Cinta Kenangan Silam Chord


 Em                            D
   C   Cuba kau pejamkan mata mu yang ayu
                              C
   Ingin ku nyatakan ke dalam hati mu
                               B
   Noktah cinta kita sampainya di sini



   Em                               D
   T   Takkan musnah impian yang ku harapkan
                        C
   Aku mengerti siapa diri ini
                        B
   Kekayaan tiada dalam diri



              Em        D
   Entah mengapa jadi begini
     C
   Nasib demikian rupa
B            Em
   Angkara dunia




C            D                     Em
   Namun langkah ku tak akan berhenti di sini
C          D                Em
   Gerhana itu mengubat hatiku
          Am
   Aku tersentuh dalam janji mu dulu
      Em
   Nyata kau membisu
            Am
   Sehingga pudar terang ingatan ini
     Em
   Lalu ku menyepi
          Am
   Adakah ini semua sudah biasa
     B
   Mainan hidup mu



                  Em      C
   Cinta kenangan silam
                  Em      C
   Cinta kenangan silam


#Malaykord



Title: XPDC - CT Cinta Kenangan Silam Chord
Artist: XPDC
Review:
Author:
Rate: 4 dari 5
Posted On:


✓ Jika ada sebarang masalah tentang chord lagu diatas sila buat aduan pada Form Report Chord yang disediakan.[REPORT CHORDS]



XPDC - BAHALOL Chord



XPDC - BAHALOL Chord

Home > > > XPDC - BAHALOL Chord


A5
Bingai lagi hidup ini
G5                                         A5
Nak cari makan susah sangat
A5
Mahu ronda kota raya
G5                                         A5
Lepak kejap pasar budaya


F5                                          A5
Dan toleh kanan toleh kiri
F5                                         A5
Nampak batang hidung sendiri


A5
Banyak susah cari makan
G5                                         A5
Semuanya ada halangan
A5
Orang buncit makan daging
G5                                             A5
Yang kurus makan ikan masin


F5                                    A5
Apa punya bahalol dia
F5                                     A5
Kasi orang pijak kepala


             D5                        A5
Orang putih sudah balik
             D5                            A5
Kini tinggal yang hitam putih
            D5                       A5
Biar papa asal bergaya
   F5               G5                     A5
Bukan musim bukan nak action


      D5                      A5
Tak tahu bertanya
       D5                           A5
Sesat jalan nanti bertanya
      D5                            A5
Tepuk dada tanya selera
      F5           G5              A5
Tutup mata pekak telinga


#Malaykord



Title: XPDC - BAHALOL Chord
Artist: XPDC
Review:
Author:
Rate: 4 dari 5
Posted On:


✓ Jika ada sebarang masalah tentang chord lagu diatas sila buat aduan pada Form Report Chord yang disediakan.[REPORT CHORDS]



XPDC - Apa Nak Di Kata Chord



XPDC - Apa Nak Di Kata Chord

Home > > > XPDC - Apa Nak Di Kata Chord


G             Em
Satu hari aku berjumpa

C                  C
Cik mek molek jual bunga

G                      Em
Senyuman manis menarik hati

C                      D
Gugur bagaikan jantung ini


B     C        D
Siapa hati tak tertawan

B     C      D
Manis umpama bulan


G             Em
Lain hari aku kembali

C                D
Ingin beli bunga lagi

G                     Em
Namun kini hanya yang ada

C                 D
Tinggal dua nisan saja


B    C         D
Lesu aku menggeletar

B     C        D
Rakus jiwa ku terbenam


G                      Em
Engkaulah emas engkau permata

C                 D
Aku cuma macam ni saja

G                    Em
Aku mahu bertemankan hidup

C                  D
Dengan hati ikhlas mulia

G                 Em
Jangan melihatkan gaya

C                  D
Nanti kita 'kan berdamai

Korus
G                  Em
Ukuran baju badan sendiri

C               D
Kita tepuk dada ini

G                   Em
Jika dah nasib kita jodoh

C                  D
Gunung tak lari ke mana

G                  Em
Apa nak kisah mahu hidup

C              D
Asal hati baik mulia

G                     Em
Kalau dah memang jadi mungkin

C            D
Apa lagi nak dikata

G Em C D..
Di kata... aaa... aaa...


G Em C D..


#Malaykord



Title: XPDC - Apa Nak Di Kata Chord
Artist: XPDC
Review:
Author:
Rate: 4 dari 5
Posted On:


✓ Jika ada sebarang masalah tentang chord lagu diatas sila buat aduan pada Form Report Chord yang disediakan.[REPORT CHORDS]



XPDC - Aku Masih Di sini Chord



XPDC - Aku Masih Di sini Chord

Home > > > XPDC - Aku Masih Di sini Chord


Am                      Dm
   Lenaku di buai bayangan seribu bintang
   G               C          Am
   Kasih tertumpah di bingkai awan
   F      G
   Demi kemilau sang mentari
            Am
   Yang tak bisa mengerti



   Am                     Dm
   Biar ku titipkan keperihan pelayaran
   G              C         Am
   Hingga terdaya ku melafazkan
   F       G
   Salju sebening kasihku
       Am
   Kepadamu oh kekasih




   Am                     Dm
   Inginku buktikan keyakinan dalam diri
   G             C     Am
   Ku punya jiwa nan suci
   F          G
   Untuk ku miliki sepenuhnya
        Am
   Nirwanaku


   Dm   G            C
   Oh pedihnya  terpanah arjunamu
   Dm       G         C
   Terbelenggu aku di dalam menunggu
   Dm   G         C
   Bergelora sindiran asmaramu
   Dm   G      C              Am
   Di pelantar rindu yang menghempas
   F       G
   Namun kerana tulusmu
         C
   Masih mampu ku berdiri
   F      G
   Demi naluri yang sama
        Am
   Kita masih di sini


#Malaykord



Title: XPDC - Aku Masih Di sini Chord
Artist: XPDC
Review:
Author:
Rate: 4 dari 5
Posted On:


✓ Jika ada sebarang masalah tentang chord lagu diatas sila buat aduan pada Form Report Chord yang disediakan.[REPORT CHORDS]



<
>


Tidak Dapat Apa Yang Anda Cari? Request Chord Disini!