Skip to navigation

malaykord_image Download Malaykord Guitar Apps Right Now!
malaykord_image Download Malaykord Guitar Apps Right Now!
Chord List: 09 | A | B | C | D | E | F | G | H | I | J | K | L | M | N | O | P | Q | R | S | T | U | V | W | X | Y | Z | NEW
09 | A | B | C | D | E | F | G | H | I | J | K | L | M | N | O | P | Q | R | S | T | U | V | W | X | Y | Z | NEW | TOP

Encik Mimpi - S.U.K.A Chord



Encik Mimpi - S.U.K.A Chord

Home > > > Encik Mimpi - S.U.K.A Chord


Intro :
G D Em D C G C D

Verse :

G D Em
Ku suka padamu
D C
Suka caramu
G C
Pabila ku bersamamu
D
Hatiku riang selalu

G D Em
Ku suka tawamu
D C
Suka senyummu
G C
Pabila kau bercerita
D
Akulah pendengar setia

Pre-chorus :

C D G
Namun ku tidak tahu
Em
Cara untuk kata padamu
C D G
Aku jatuh suka padamu

C D G
Maka ku tuliskan lagu
Em
Menyampaikan rasa sukaku
C D (hammer Dsus4)
Ku ingin kau dengarkan aku

Chorus :

G D Em
Ku mahu kau selalu suka
D C
Bila ku mulai petikkan gitar
G C
Ku tak mahu dirimu berduka
D
Itu aku tak suka

G D Em
Ku mahu kau selalu suka
D C
Bila ku mengalunkan suara
G C
Ku mahu mendengar kau ceria
D G
Sebab itu yang paling ku suka

Verse :

G D Em
Terkadang ku malu
D C
Bila denganmu
G C
Tak tahu kenapa begitu
D
Mungkin sebab ku suka kamu

G D Em
Ku bayangkan kamu
D C
Sebagai temanku
G C
Walau sebenarnya ku takut
D
Akan kehilanganmu

Pre-chorus :

C D G
Jangan kau jauh dariku
Em
Aku jenis tak tahan rindu
C D G
Nanti hidupku bercelaru

C D G
Tolonglah dengar lagu ku
Em
Jika kau juga rindukan aku
C D
Ku suka kau dengarkan aku

Chorus :

G D Em
Ku mahu kau selalu suka
D C
Bila ku mulai petikkan gitar
G C
Ku tak mahu dirimu berduka
D
Itu aku tak suka

G D Em
Ku mahu kau selalu suka
D C
Bila ku mengalunkan suara
G C
Ku mahu mendengar kau ceria
D G
Sebab itu yang paling ku suka
G D Em
Ku mahu kau selalu suka
D C
Bila ku mulai petikkan gitar
G C
Ku tak mahu dirimu berduka
D
Itu aku tak suka

G D Em
Ku mahu kau selalu suka
D C
Bila ku mengalunkan suara
G C
Ku mahu mendengar kau ceria
D
Itu yang aku suka

G D Em
Dan ku lakukan semua yang kau suka
D C
Andai itu membuat hatimu suka
G C
Aku suka melihat kau suka
D G
Sebab kamu yang paling ku suka

D G
Aku SUKA…
D G
Aku SUKA…
D G G
Padamu…


#Malaykord



Title: Encik Mimpi - S.U.K.A Chord
Artist: Encik Mimpi
Review:
Author:
Rate: 4 dari 5
Posted On:


✓ Jika ada sebarang masalah tentang chord lagu diatas sila buat aduan pada Form Report Chord yang disediakan.[REPORT CHORDS]



Encik Mimpi - Ayuh Tinggalkan Dia Chord



Encik Mimpi - Ayuh Tinggalkan Dia Chord

Home > > > Encik Mimpi - Ayuh Tinggalkan Dia Chord


Intro :
Em Am D G C Am B

Em Am
Dah berkali-kali ku terfikir dan tertanya
D G
Entah bagaimana kau sanggup bersamanya
C Am
Aku lihat dia taklah sekacak mana
B
Ai geram hati ku rasa

Em Am
Di sini ku sedia menggantikan tempatnya
D G
Kan ku buktikan ku lebih hebat darinya
C Am
Ayuh sayang jangan tangguh-tangguhkan masa
B
Janganlah tunggu lama-lama

Am
Oh sayang sayang sayang sayang
D
Sejuta kali sayang
G C
Tiada yang ku sayang selain kamu sayang
Am B E
Sayang ku pada kamu takkan menghilang

Am
Oh rindu rindu rindu rindu
D
Sejuta kali rindu
G C
Hanya diri kamu yang selalu aku rindu
Am B Em
Setiap masa pun kamu dalam kalbuku

Chorus :

Am
Sayang, ku kan setia
D G
Akan ku pastikan kamu bahagia
C Am
Takkan ku biarkan kamu menderita
B Em
Tanpa rasa cinta

Am
Sayang ku kan mencinta
D G
Lebih dari apa kau dapat darinya
C Am
Ku janji kaukan pasti rasa sempurna
B Em
Tinggalkan lah dia
B
Ayuh
Em
Tinggalkan lah dia

Em Am
Akan ku binakan mu istana bahagia
D G
Ku lantik diriku menjadi panglima cinta
C Am
Yang akan melindungi kamu setiap masa
B
Kerna kamu sang puterinya


#Malaykord



Title: Encik Mimpi - Ayuh Tinggalkan Dia Chord
Artist: Encik Mimpi
Review:
Author:
Rate: 4 dari 5
Posted On:


✓ Jika ada sebarang masalah tentang chord lagu diatas sila buat aduan pada Form Report Chord yang disediakan.[REPORT CHORDS]



Encik Mimpi - Rindukanlah Chord



Encik Mimpi - Rindukanlah Chord

Home > > > Encik Mimpi - Rindukanlah Chord


(/) Slide Up
(\) Slide Down
(h) Hammer On
(p) Pull Off
(b) Bend
(r) Release
(v) Vibrato

Intro :
Em D C G D
Em D C D D D

Solo :

E|--------------------------------------------------------------------------------------
B|-----------------------------------8/12-12/15-15/17/12-10-8-7-8-------8h10r8-7-8-8/10-
G|---9-11-12v--12h14r12--11------7/9------------------------------7-7/9-----------------
D|-9------------------------12-9--------------------------------------------------------
A|--------------------------------------------------------------------------------------
E|--------------------------------------------------------------------------------------

E|-------------------
B|-----8-7-----------
G|-7-7---------------
D|---------9p7-5-5/7-
A|-------------------
E|-------------------

G                               D
Ku Benar-Benar Sayang
             Em                D
Pada Dirimu Oh Kasihku
              C                  G
Janganlah Engkau Ragu
               D
Pada Diriku

G                                    D
Dan Ku Berkelana Mencari
             Em                           D
Harapan Yang Kita Impikan..
              C                  G
Dari Terbitnya Sang Suria...
               D
Hingga Tenggelam..

              Em                      D
Dan Ku Ingin Cinta Sejatimu
              C                   G
Dan Ku Ingin Harapan Hatimu
               Em                        D
Oh Janganlah Engkau Bersedih
              C                    D       Em
Oh Ikhlas-Ikhlaskanlah.. Hatimu

Em                              D
Rindu-rindukanlah Diriku
       Em                    D
Sepanjang Hari-Harimu
               C              D       Em
Sayangku Ku Adalah Milikmu
                 C             D
Sayangku Ku  Adalah
           G                  D  Em  D
Milikmu Yang Kau Rindu..  
C                  D       G                          D Em  
Doa. .Doakanlah Diriku Di Dalam Hatimu
                        D  C
Di Dalam Nafasmu
         D                     G
Sepanjang Hari-harimu

G                               D
Ku Benar-Benar Sayang
              Em              D
Pada Dirimu Oh Kasihku
               C                 G
Janganlah Engkau Ragu
               D
Pada Diriku

                   Em                D
Dan Ku Ingin Cinta Sejatimu
                   C                     G
Dan Ku Ingin Harapan Hatimu
                     Em                 D
Oh Janganlah Engkau Bersedih
              C                    D       Em
Oh Ikhlas-Ikhlaskanlah.. Hatimu

Em                              D
Rindu-rindukanlah Diriku
      Em                     D
Sepanjang Hari-Harimu
               C                 D    Em
Sayangku Ku Adalah Milikmu

Em D C G..Em D C D Em Em

E|------------------------------------------------
B|-12------10-7---8---7---------------------------
G|----12-9------7---9---7---------------7---------
D|------------------------9-7/9-9/7-9-9---9p7-5-5-
A|------------------------------------------------
E|------------------------------------------------


E|---------10----10-12-10-12-14-10-10--15-15-14-12---------------------19-17-15-14-17-17-15-14-------------
B|-12---------10-----------------------------------15---8-7-8-10-------------------------------17-15b17b15-
G|----12-9-------------------------------------------------------7-7/9-------------------------------------
D|---------------------------------------------------------------------------------------------------------
A|---------------------------------------------------------------------------------------------------------
E|---------------------------------------------------------------------------------------------------------

                  Em                 D
Dan Ku Ingin Cinta Sejatimu
                   C                  G
Dan Ku Ingin Harapan Hatimu
                       Em              D
Oh Janganlah Engkau Bersedih
             C                     D           Em
Oh Ikhlas-Ikhlaskanlah.. Hatimu (woo)

                  Em                D
Dan Ku Ingin Cinta Sejatimu
                  C                      G
Dan Ku Ingin Harapan Hatimu
                        Em              D
Oh Janganlah Engkau Bersedih
                 C                 D
Oh Jangan-Janganlah Kau
            C                        D     Em              
Bersedih dan Hatimu..Kekasih

Em                                D
Rindu-rindukanlah Diriku
     Em                          D
Sepanjang Hari-Harimu
                  C            D             Em
Sayangku Ku Adalah Milikmu.. (Huu)


#Malaykord



Title: Encik Mimpi - Rindukanlah Chord
Artist: Encik Mimpi
Review:
Author:
Rate: 4 dari 5
Posted On:


✓ Jika ada sebarang masalah tentang chord lagu diatas sila buat aduan pada Form Report Chord yang disediakan.[REPORT CHORDS]



Elyana - Missed Call Chord



Elyana - Missed Call Chord

Home > > > Elyana - Missed Call Chord


Intro :
C#m B

E
Benci aku benci sekali
C#m
Tiap kali telefon berbunyi
A
Benci aku dah memang benci
E
Pasti kau buat missed call lagi

E
Tak tahu ku tak tahu
C#m
Kenapa kau bersikap begitu
A
Tak tahu sungguh tak ku tahu
E
Tak ku tahu

*

E
Kau kata
kau rindukan suara
Tuturku kataku
Halus madah ku dan indah ayatku
A E
Tapi setiap kali kau telefon aku
F#m
Tak boleh lama kau kata
A E
Kredit mu sudah tak ada lagi

E
Pasti aku pasti sekali
C#m
Deringnya sekejap berbunyi
A
Pasti aku pasti sekali
E
Kredit tak pernah mencukupi

E
Tak mungkin oh tak mungkin
C#m
Itu terjadi kepada ku
A E
Walau apapun alasan mu kepadaku

Ulang *

Solo :
E C E C Am E F#m E

A E
Kreditmu telah habis
C#m B
Di sini saja denganku

E
Benci aku benci sekali
C#m
Tiap kali telefon berbunyi
A
Benci aku dah memang benci
E
Pasti kau buat missed call lagi

Ulang *


#Malaykord



Title: Elyana - Missed Call Chord
Artist: Elyana
Review:
Author:
Rate: 4 dari 5
Posted On:


✓ Jika ada sebarang masalah tentang chord lagu diatas sila buat aduan pada Form Report Chord yang disediakan.[REPORT CHORDS]



Elyana -Tak Tercapai Akalmu Chord



Elyana -Tak Tercapai Akalmu Chord

Home > > > Elyana -Tak Tercapai Akalmu Chord


Em                         Am
Ku congak apa yang didepan ku
             D
sebelum atur langkah
              Em
ku tahu kan ke mana
Em                       Am
tak mudah aku kan diperdaya
                 D
dengan pujuk dan rayu
             B
hasut ke dunia mu

      Am
sesungguhnya ku
B               Em
lebih dari yang kau tahu
C             B
baik buruknya sesuatu
   C                 B
selalunya difikirkan dulu

Em
biar berdentum
              Am/D
langit runtuh dan menghempap diriku
           D        
tidak tergadai tata susila ku
                   G           B
yang menggambarkan siapa diriku

Em
biarlah bergoncang
            Am/D
bumi di telapak kakiku ini
              D
namun takkan ku rubah pendirian
             G            B
yang membuat aku menjadi aku

Am                  Em
mungkin sukar tuk difahami
Am                 B
kerna tak tercapai akal mu


#Malaykord



Title: Elyana -Tak Tercapai Akalmu Chord
Artist: Elyana
Review:
Author:
Rate: 4 dari 5
Posted On:


✓ Jika ada sebarang masalah tentang chord lagu diatas sila buat aduan pada Form Report Chord yang disediakan.[REPORT CHORDS]



Elyana - Niat 2008 Chord



Elyana - Niat 2008 Chord

Home > > > Elyana - Niat 2008 Chord


Intro :

e|--------------------------------|--------------------------------|
b|-4-------3-------4-------3------|-4-------3-------4-------3------|
g|-----5-------5-------5-------5--|-----5-------5-------5-------5--|
d|--------------------------------|--------------------------------|
a|--------------------------------|--------------------------------|
E|--------------------------------|--------------------------------|

e|--------------------------------|-----------------------------3--|
b|-4-------3-------4-------3------|-4-------3-------4-------3------|
g|-----5-------5-------5-------5--|-----5-------5-------5----------|
d|--------------------------------|--------------------------------|
a|--------------------------------|--------------------------------|
E|--------------------------------|--------------------------------|

e|--------------------------------|--------------------------------|
b|-4-------3-------4-------3------|-4-------3-------4-------3------|
g|-----5-------5-------5-------5--|-----5-------5-------5-------5--|
d|--------------------------------|--------------------------------|
a|--------------------------------|--------------------------------|
E|--------------------------------|--------------------------------|

Verse :

e|-0---------------|--------------------|-1---------------|
b|-1---------------|-------1------------|-1---------------|
g|-0---------------|---------------0----|-2---------------|
d|-2---------------|--0h2---------------|-3---------------|
a|-3---------------|-----------0--------|-----------------|
E|-----------------|--------------------|-----------------|

e|-----------------|--------------------|-----------------|
b|------1----------|-0------------------|---------1-------|
g|-0h2-------------|-0------------------|-1-------2-------|
d|-----------------|--------2-----------|-0-------2-------|
a|-----------------|--------2-----------|-2-------0-------|
E|----------3------|--------0-----------|-0---------------|

e|-----------------|-1------------------|-3-------------3-|
b|-----------------|-1-----1------------|-0-------0-------|
g|-------------2---|-2-----------2------|-0-------0-------|
d|-------0h2-------|-3------------------|-0-------0-------|
a|-----------------|--------------------|-2---------------|
E|-----------------|--------------------|-3---------------|

Piano :  

e|--------------------------------|--------------------------------|
b|-5-------3-------5-------3------|-5-------3-------6-------6------|
g|-----5-------5-------5-------5--|-----5-------5-------5-------5--|
d|--------------------------------|--------------------------------|
a|--------------------------------|--------------------------------|
E|--------------------------------|--------------------------------|

e|--------------------------------|--------------------------------|
b|-5-------3-------5-------3------|-5-------3-------6-------6------|
g|-----5-------5-------5-------5--|-----5-------5-------5--------5-|
d|--------------------------------|--------------------------------|
a|--------------------------------|--------------------------------|
E|--------------------------------|--------------------------------|

e|-------------3--4---4---4---4---|-4---4--------------------------|
b|-6-------6----------------------|--------------------------------|
g|-----5--------------------------|--------------------------------|
d|--------------------------------|--------------------------------|
a|--------------------------------|--------------------------------|
E|--------------------------------|--------------------------------|

                                    Verse 2

e|-0-0----------0-0---------------|-0--------------|-----------------|
b|-1-1----------1-1---------------|-1--------------|---------1-------|
g|-0-0----------0-0---------------|-0--------------|-----------------|
d|-2-2----------2-2---------------|-2--------------|----0h2----------|
a|-3-3----------3-3---------------|-3--------------|-----------------|
E|--------------------------------|----------------|-----------------|

e|------3---------------|-1-------------|-------------------|
b|---------1------------|-1-------------|-----------1-------|
g|------------0---------|-2-------------|------0h2----------|
d|----------------------|-3-------------|-------------------|
a|-0--------------------|-3-------------|-------------------|
E|----------------------|---------------|-------------------|

e|--------------|------------------|-----------------------|
b|--------------|-0----------0-----|-------3---------------|
g|--------------|------------------|--------------1--------|
d|--------------|---------2-----2--|--------------0--------|
a|--------------|------------------|--------------2--------|
E|-3------------|------------------|-0------------0--------|

e|-0-----------------|-1-------------|----------------------------|
b|-------1-----1-----|-1--------1----|----------------------------|
g|-------2-----------|-2-------------|----------------------------|
d|-------2-----------|-3-------------|--------------------0-------|
a|-------0-----------|-3----3--------|---------------2-3----------|
E|-------------------|---------------|-3----0-1-3-----------------|

e|------------------x-x-5\----x-x-3\-----|
b|------------------x-x-6\----x-x-3\-----|
g|--------------0---x-x-5\----x-x-4\-----|
d|-0-2-3----2-3-----x-x-7\----x-x-5\-----|
a|---------------------------------------|
E|---------------------------------------|

Strumming chords :
C / / / /Em/ / / /Dm/ / / /G/ / / /C/ / / /Em/ / / /F/ / / /G/ / /
F/  E/ / / / A5/ / / /Dm/ /C/ /G/ / /F/  E/ / / /Am/ / / /D / / / /
G/          

Piano  

e|--------------------------------|--------------------------------|
b|-5-------3-------5-------3------|-5-------3-------6-------6------|
g|-----5-------5-------5-------5--|-----5-------5-------5-------5--|
d|--------------------------------|--------------------------------|
a|--------------------------------|--------------------------------|
E|--------------------------------|--------------------------------|

e|--------------------------------|--------------------------------|
b|-5-------3-------5-------3------|-5------------------------------|
g|-----5-------5-------5-------5--|--------------------------------|
d|--------------------------------|--------------------------------|
a|--------------------------------|--------------------------------|
E|--------------------------------|--------------------------------|

e|------------------------------------------------|
b|------------------------------------------------|
g|-2--2--2--2--2--2--2--2--2--2--2--2--2--2--2--2-|
d|-3--3--3--3--3--3--3--3--3--3--3--3--3--3--3--3-|
a|-3--3--3--3--3--3--3--3--3--3--3--3--3--3--3--3-|
E|-1--1--1--1--1--1--1--1--1--1--1--1--1--1--1--1-|

Solo :

e|--------------------------------|--------------------------------|
b|-11fb-~---9fb-~---7fb-~---------|-11fb-~---9fb-~---7fb-~---------|
g|--------------------------------|--------------------------------|
d|--------------------------------|--------------------------------|
a|--------------------------------|--------------------------------|
E|--------------------------------|--------------------------------|

e|--------------------------------|--------------------------------|
b|-7fb--r(7)--5-------------------|--------------------------------|
g|---------------------8----------|-6------5----6-8---6------------|
d|--------------------------------|-----------------8---6-8-8-~----|
a|--------------------------------|--------------------------------|
E|--------------------------------|--------------------------------|

e|--------------------------------|--------------------------------|
b|--------------------------------|--------------------------------|
g|--------------------------------|--------------------------------|
d|---6---8hb-p6h8-8-~-------------|---6----8fb---8fb---8fb----12-~-|
a|-8---8--------------------------|-8---8--------------------------|
E|--------------------------------|--------------------------------|
 
e|-------------15-15-----------------------|
b|---------15--------15-15---15fb--15fb--~-|
g|-----14----------------------------------|
d|-12--------------------------------------|
a|-----------------------------------------|
E|-----------------------------------------|

Strumming chords :
C / / / /Em/ / / /Dm/ / / /G/ / / /C/ / / /Em/ / / /F/ / / /G/ / /
F/  E/ / / / A5/ / / /Dm/ /C/ /G/ / /F/  E/ / / /Am/ / / /D / / / /
G/ / / F G F E/ / / / A5/ / / /Dm/ /C/ /G/ / /F/  E/ / / /Am/ / / /
D / / / /
G/        

Piano :

e|-4-------2-------4-------2-------4-------2-----|
b|-----5-------5-------5-------5-------5-------5-|
g|-----------------------------------------------|
d|-----------------------------------------------|
a|-----------------------------------------------|
E|-----------------------------------------------|


fb = full bend
h  = hammer on
p  = pull off
~  = vibrator



#Malaykord



Title: Elyana - Niat 2008 Chord
Artist: Elyana
Review:
Author:
Rate: 4 dari 5
Posted On:


✓ Jika ada sebarang masalah tentang chord lagu diatas sila buat aduan pada Form Report Chord yang disediakan.[REPORT CHORDS]



Elyana - Kalis RIndu Chord



Elyana - Kalis RIndu Chord

Home > > > Elyana - Kalis RIndu Chord


A   : X02220
A6  : X02222
Bm  : XX4432
D   : XX0232
E   : 022100
F#m : X44222
G   : 320003


Intro :
A A6 (4x)
Bm C#m D E A

  A                        A6
Desiran daun dihembus angin
       A                              A6
Tin kosong dan tong golek ke kaki
       Bm    E     A
Membelah sunyiku

     A                                  A6
Menonton bayang wajahmu di minda
    A                           A6
Kala ku sendirian terpisah jauh
     Bm E     A
Beerti tanpamu

D                E
Babak penantian
D         A
Satu ujian
           F#m  E  D  E
Sekuat ma...na cinta

                   A
Ku tak mungkin
            E
Kalis rindu
           F#m
Kalis pilu
             E
Bila kau tiada
             E
Ku semakin
                 E
Pendam rindu
               F#m
Pendam pilu
                 E                  A
Hingga kau menjelma ah aaa

      A                               A6
Berdiri ditingkap merenung ke luar
    A                                                  A6
Lihat kekasih ku yang basah berjalan dalam hujan
    Bm   E      A
Beserta senyuman
    Bm     E    A
Lama ku nantikan

G                      Bm
Setiap detik dan waktu berlalu
            G
Di alam berkasih
             E
Menjadi rakaman yang berharga
        E
Tak terharga yang berharga


#Malaykord



Title: Elyana - Kalis RIndu Chord
Artist: Elyana
Review:
Author:
Rate: 4 dari 5
Posted On:


✓ Jika ada sebarang masalah tentang chord lagu diatas sila buat aduan pada Form Report Chord yang disediakan.[REPORT CHORDS]



Elyana - Molek Chord



Elyana - Molek Chord

Home > > > Elyana - Molek Chord


C#m - xx2120

F#m B
Ku tahu ku bukan terbaik
F#m B
Namun ku rasa kita molek
D A
Sebagai sepasangan
D A
Merpati dua sejoli

Bridge :

F#m B
Tik tok tik
F#m B
Detak detik waktu
D A
Usah dibiarkan berlalu
D A
Tanpa ku disisimu
D E
Tanpa ku kekasihmu

Chorus :

A C#m
Setiap kali ku baca hikayat cinta agung
D E A
Tragedi komedi Aku terasa
A C#m D
Seolah ia tercipta menceritakan
G E
Tentang kisah kita...

A B
Selalu mahu selalu
D                             A
Dekat denganmu Saling denganku
A B
Cemburu, resah dan rindu
D                      A
Bergaul rasa Bila kau tiada...


#Malaykord



Title: Elyana - Molek Chord
Artist: Elyana
Review:
Author:
Rate: 4 dari 5
Posted On:


✓ Jika ada sebarang masalah tentang chord lagu diatas sila buat aduan pada Form Report Chord yang disediakan.[REPORT CHORDS]



Elyana - Diriku Tapak Sulaiman Chord



Elyana - Diriku Tapak Sulaiman Chord

Home > > > Elyana - Diriku Tapak Sulaiman Chord


Em                            B
Bagaikan diriku tapak sulaiman
Em                                       B
Terdampar di pantai berlagu sepi
C                               C
Rindukan laut Rindukan hidup

*

Em                            B
Bagaikan diriku bintang berkelip
Em                                    B
Dihujung angkasa bergelut sunyi
C                                               C
Rindukan malam Rindukan teman
Am
Bacalah kekasih
C
Bicara mata ini

**

Em                                B
Rindu yang lama tersimpan
C                          Em
Dalam sangkar sanubari
Em                                    B
Hanya menanti kesempatan
C                               Em
Untuk kuluah padamu
                          B
Pabila kau bersedia

Bagaikan diriku tapak sulaiman
Terdampar di pantai berlagu sepi
Rindukan laut
Rindukan hidup
Seperti insan yang punya kekasih
Rindu yang tersimpan
Dalam sangkar sanubari
Hanya menanti kesempatan
Untuk kuluah padamu
Seperti insan yang punya kekasih

Ulang *
Ulang ** (2x)


#Malaykord



Title: Elyana - Diriku Tapak Sulaiman Chord
Artist: Elyana
Review:
Author:
Rate: 4 dari 5
Posted On:


✓ Jika ada sebarang masalah tentang chord lagu diatas sila buat aduan pada Form Report Chord yang disediakan.[REPORT CHORDS]



<
>


Tidak Dapat Apa Yang Anda Cari? Request Chord Disini!