- 0 +

Skip to navigation

malaykord_image Bantu Kami kemaskini List Genre Chord!
Chord List: 09 | A | B | C | D | E | F | G | H | I | J | K | L | M | N | O | P | Q | R | S | T | U | V | W | X | Y | Z | NEW

Pesawat - Mirage Chord



Pesawat - Mirage Chord

Home > > > Pesawat - Mirage Chord

Report Chord
       E7M   B7M   G#5   A#5   B5        
                 
E||------7-----2----------------------||
B||------9-----4----------------------||
G||------8-----3----------------------||
D||------9-----4-----6-----8-----9----||
A||------7-----2-----6-----8-----9----||
E||------------------4-----6-----7----||

------------------------------------------------------------------
------------------------------------------------------------------
--4-3----6h8----4---3-4-3-4-------4-3----8h11---8---6-8-6-8-------
-------6-------------------------------6--------------------------
------------------------------------------------------------------
------------------------------------------------------------------
     
------------------------------------------------------------------
------------------------------------------------------------------
--4-3----6h8----4---3-4-3-4-------4-3----8h11---8---6-8-6-8-8h9--
-------6-------------------------------6--------------------------
------------------------------------------------------------------
------------------------------------------------------------------

Intro :
E7m B7M (4x)

E7m              B7M
Cahaya terang menembusi
E7m                 B7M
Bagai sebuah kisah misteri
E7m             B7M
Kau mungkin asing
E7m
Kau mungkin
B7M     G#5      A#5     B5
pernah ku kenal sebelum ini

E7m             B7M
Resah gelisah dibuatnya
E7m            B7M
Bagai sebuah cereka cinta
E7m     B7M
Haru  biru
E7m      
Kelam  
B7M   G#5   A#5   B5
jiwaku Semakin kacau

Chorus (2x) :

E7m              
Siang malam termimpi mimpi
B7M
Pagi petang tercari cari
E7m
Tiap saat ternanti nanti
B7M  G#5   A#5    B5
Kau masih tiada disisi


E7m              B7M
Apakah ini satu mimpi
E7m                  B7M
Terasa bagai sebuah delusi
E7m       B7M
Ilusi  mata
E7m       B7M
Mainan  jiwaku
G#5   A#5  B5
Semakin kacau

Chorus (2x) :

E7m     B7M
Haru  biru
E7m      B7M
Kelam  jiwaku
G#5   A#5  B5
Semakin kacau


#Malaykord
Title: Pesawat - Mirage Chord
Artist: Pesawat
Review:
Rate: 4 dari 5
Posted On:

Kami tak menyediakan apa-apa download link untuk: MP3


✓ Jika ada sebarang masalah tentang chord lagu diatas sila buat aduan pada Form Report Chord yang disediakan.[REPORT CHORDS]

Comments :

malaykord_image malaykord_image malaykord_image

Tidak Dapat Apa Yang Anda Cari? Request Chord Disini!