PLAY

Skip to navigation

LEBIH 100 CHORD LAGU RAYA KLIK SINI!
Chord List: 09 | A | B | C | D | E | F | G | H | I | J | K | L | M | N | O | P | Q | R | S | T | U | V | W | X | Y | Z | NEW | TOP

Papinka - Masih Mencintainya Chord



Papinka - Masih Mencintainya Chord

Home > > > Papinka - Masih Mencintainya Chord

Report Chord
Intro (solo) :

E|---------------------------------------------------------------------------------
B|---------------------------------------------------------------------------------
G|----------------------2-4-4/5--5-4-2---------------------------------4-5-5/7-----
D|--------------5-7--------------------2-2/5---3-5-5/7--7--5--3-5/7--7---------5-5-
A|-3-5-5/7--7-8-----5--------------------------------------------------------------
E|---------------------------------------------------------------------------------

 C                  G
Jika teringat tentang dirimu
   Am             Em
Berlinang air mataku
     F             C
Ku rindu saat saat bersamamu
 Dm                G
Kasih sayangmu padaku

 C                G
Namun kini kau bukan miliku
      Am                Em
Dan berakhir sudah cintaku
      F          C
Biarkan saja hatiku bicara
      Dm            G
Ku masih sayang padamu

 F            G
Aku slalu mendoakanmu
 C            Am
Agar kau bahagia
          F             G
Bersama dirinya...slamanya

Reff :

             C              G
Mengapa mudahnya hatimu mendua
               Am               Em
Ku lapangkan dada walau ku terluka
           F               C
Semoga bahagia bersama dirinya
               Dm        G
Kerna kau tlah memilih dia
 
             C                G
Bertapa sakitnya apa yang kurasa
              Am                  Em
Tuhan kuatkanlah hatiku yang terluka
            F                C
Semoga ku bisa tuk melupakannya
               Dm        G
Karna ku masih mencintainya

  C              G
Namun kini kau bukan miliku
      Am                Em
Dan berakhir sudah cintaku
      F           C
Biarkan saja hatiku bicara
 Dm                 G
Ku masih sayang padamu

 F            G
Aku slalu mendoakanmu
 C            Am
Agar kau bahagia
           F            G
Bersama dirinya...slamanya

F C Dm Am F G

Melody (solo) :

E|----------------------------------------------------------------------12-10-12---
B|------------------------------10-8--------8-------------------10-8-10------------
G|-----5-7-7/9---5h7p5--------7------9-9-10---5-7b9p7---10-9-10--------------------
D|-5/7---------7-------7-9-10------------------------------------------------------
A|---------------------------------------------------------------------------------
E|---------------------------------------------------------------------------------

E|-----------10-8-7------------------8-10-10/12-----------15-13-12----10-12-10-15-15-
B|------8-10--------8-----------8/10------------10--12-13----------13----------------
G|-9-10---------------7/9------------------------------------------------------------
D|------------------------9/7--------------------------------------------------------
A|-----------------------------------------------------------------------------------
E|-----------------------------------------------------------------------------------

E|----------------------10-------10-12----10-12-13-15-
B|----10-12-13-10-12-13----12-13-------13-------------
G|-12-------------------------------------------------
D|----------------------------------------------------
A|----------------------------------------------------
E|----------------------------------------------------

               C             G
Mengapa mudahnya hatimu mendua
               Am               Em
Ku lapangkan dada walau ku terluka
             F              C
Semoga bahagia bersama dirinya
               Dm        G
Karna kau tlah memilih dia

              C               G
Bertapa sakitnya apa yang kurasa
              Am                  Em
Tuhan kuatkanlah hatiku yang terluka
             F               C
Semoga ku bisa tuk melupakannya
               Dm        G
Karna ku masih mencintainya

Outro :
F C  Dm G C



#Malaykord
Title: Papinka - Masih Mencintainya Chord
Artist: Papinka
Review:
Rate: 4 dari 5
Posted On:

Kami tak menyediakan apa-apa download link untuk: MP3


✓ Jika ada sebarang masalah tentang chord lagu diatas sila buat aduan pada Form Report Chord yang disediakan.[REPORT CHORDS]

Comments :



Tidak Dapat Apa Yang Anda Cari? Request Chord Disini!