PLAY

Skip to navigation

Chord List: 09 | A | B | C | D | E | F | G | H | I | J | K | L | M | N | O | P | Q | R | S | T | U | V | W | X | Y | Z | NEW

Nubhan - Oh juwita Chord



Nubhan - Oh juwita Chord

Home > > > Nubhan - Oh juwita Chord

Report Chord
Tuning standard

Chord

Gm  = 355333
D#  = x65343
Gm7 = 353333
Cm7 = x35343

Intro


Gm x15


Verse 1


  Gm
Duhai Juwita
Sungguh aku tak mengerti
    D#
Tak pernah engkau mencuba untuk fahami
Cm                              D               D7
Aku yang selalu mencuba untuk menyayangimu di sini



Verse 2


  Gm
Duhai Juwita
Masihkah hancur hatimu
  D#
Setelah patah ditinggalkan kekasihmu
Cm                               D              D7
Agar aku yang akan selalu temani mengusap tangismu


Chorus


Gm     Cm     F            Bb
Akulah lelaki yang bisa mencintamu
D#           Cm       D    D7
Hingga nanti aku akan mati
Gm     Cm     F            Bb
Akulah lelaki yang bisa menjagamu
D#           Cm         D     D7
Hingga nanti akhir nafasku ini



Verse 1


  Gm
Duhai Juwita
Sungguh aku tak mengerti
    D#
Tak pernah engkau mencuba untuk fahami
Cm                              D               D7    Gm
Aku yang selalu mencuba untuk menyayangimu di sini



Solo

  Gm          Cm                 F           Bb             D#                  Cm                     D   D7
E-------------10-11-10h11h10----|----------------10-------|---------------------------------------------------------|
B----10-11-13----------------13-|-------10-11-13----13-11-|-10h11-10h11-10h11h10--------11-10-11-10----13^^^^(full)-|
G-12----------------------------|-10-12-------------------|----------------------12-12--------------12--------------|
D-------------------------------|-------------------------|---------------------------------------------------------|
A-------------------------------|-------------------------|---------------------------------------------------------|
E-------------------------------|-------------------------|---------------------------------------------------------|
  Gm          Cm                 F            Bb            D#        Cm            D       D7
E-------------10-11-10h11h10----|----------------10-------|-----------------------------------------|
B----10-11-13----------------13-|-------10-11-13----13-11-|-10^(half)-12^(full)-15^(full)-15^(full)-|
G-12----------------------------|-10-12-------------------|-----------------------------------------|
D-------------------------------|-------------------------|-----------------------------------------|
A-------------------------------|-------------------------|-----------------------------------------|
E-------------------------------|-------------------------|-----------------------------------------|





Gm7            Cm7
Tak akan ada lagi
            D
Lelaki yang bisa
             D7
Mencintamu seperti ku


*Chorus x2


Gm x13


#Malaykord
Title: Nubhan - Oh juwita Chord
Artist: Nubhan
Review:
Rate: 4 dari 5
Posted On:

Kami tak menyediakan apa-apa download link untuk: MP3


✓ Jika ada sebarang masalah tentang chord lagu diatas sila buat aduan pada Form Report Chord yang disediakan.[REPORT CHORDS]

Comments :

malaykord_image malaykord_image malaykord_image

Tidak Dapat Apa Yang Anda Cari? Request Chord Disini!