PLAY

Skip to navigation

LEBIH 100 CHORD LAGU RAYA KLIK SINI!
Chord List: 09 | A | B | C | D | E | F | G | H | I | J | K | L | M | N | O | P | Q | R | S | T | U | V | W | X | Y | Z | NEW | TOP

May - Pelayaran Chord



May - Pelayaran Chord

Home > > > May - Pelayaran Chord

Report Chord
E          C               D                        Bb
Berilah peluang kepada diriku meneruskan pelayaran ini
E           C               D                      Bb
dan mencari secebis hati untuk  aku berdiri
G                        D      G                      E
Usah lah kau mengahalang diriku untuk mengejar cita ini
C          G          A                         E
Agar ku capai kejayaan dalam hidup

E                           C                  D                            
Bb
Kuhanya memberi satu kesenian untuk dinikamati bersama
E                           C         D              Bb
Akan ku hulur dgn cara ku yang iklas ini
G                      D            G                               E
Aku juga insan seperti mu perlu melengkap kan diri
C      G           A                                     E
Melalui lorong hidup ku akan ku teruskan
C                  D                         Bb
Pelayaran ini sehiinnga hujungnya

Solo :

---------------------------------------------------------------------------------

--------------------------------------------------------------------------------

---9-----9-----9----5-----5-----5----7-----7-----7----9-----9-----9-------

-9---9-----9-----9-----5-----5-----5----7-----7-----7----9-----9-----9---

-------7-----7------------3-----3-----------5----5-----------7-----7------

---------------------------------------------------------------------------------

                              (PULM MUTE)

----------------------------------------------------------------------------------

-------------------------------------------------------------------------------

-9-----9-----9----5-----5-----5----7-----7-----7-------------------------

---9-----9-----9----5-----5-----5----7-----7-----4-5-7-9-------

-----7-----7-----------3-----3-----------5----5---2-3-5-7-----

------------------------------------------------------------------------------


#Malaykord
Title: May - Pelayaran Chord
Artist: May
Review:
Rate: 4 dari 5
Posted On:

Kami tak menyediakan apa-apa download link untuk: MP3


✓ Jika ada sebarang masalah tentang chord lagu diatas sila buat aduan pada Form Report Chord yang disediakan.[REPORT CHORDS]

Comments :



Tidak Dapat Apa Yang Anda Cari? Request Chord Disini!