PLAY

Skip to navigation

Chord List: 09 | A | B | C | D | E | F | G | H | I | J | K | L | M | N | O | P | Q | R | S | T | U | V | W | X | Y | Z | NEW

O-two - Orbit Merentasi Masa Chord



O-two - Orbit Merentasi Masa Chord

Home > > > O-two - Orbit Merentasi Masa Chord

Report Chord
Intro : Bb
D A Bm G


D G
Terbang kicauan berarak pergi
D G
Memahami satu lumrah dunia
D G
Kejujuran tersemat di jiwa
B A G
Itu yang kau ungkapkan dulu.


Em
Pandanglah
G
Tinggi di langit
Bm A
Bersama bintang ( bintang )
Em G A
Bagaikan dugaan tulus dariNya


D A
Sinar kan pasti menjelma ( menjelma )
Bm G
Teguh dan tabah mengharunginya
D A
Sinar kan pasti menjelma ( menjelma )
Bm G
Teguh dan tabah mengharunginya


Bb , X X X X X X


D G
Kejujuran tersemat di jiwa
B A G
Itu yang kau ungkapkan dulu.



Em
Pandanglah
G
Tinggi di langit
Bm A
Bersama bintang ( bintang )
Em G A
Bagaikan dugaan tulus dariNya



D A
Sinar kan pasti menjelma ( menjelma )
Bm G
Teguh dan tabah mengharunginya
D A
Sinar kan pasti menjelma ( menjelma )
Bm G
Teguh dan tabah mengharunginya



Solo :


E|------------------------------------------------------------------------------|
B|------------------------------------------------------------------------------|
G|--7-7-7---6-6--7--6---2--X--X-------------------------------------------|
D|-------------------------------------4-5-7-5-4-5-4-4--X--X--------------|
A|------------------------------------------------------------------------------|
D|------------------------------------------------------------------------------|


E|--------------------------------------------------------------------------------------------------10----|
B|---------------------------------------------------------------------------------------------------------|
G|-11---11-11-11-12-11-11--8---8--10--12--10-12-13-12-13-15--13--12-13-12---------|
D|---------------------------------------------------------------------------------------------------------|
A|---------------------------------------------------------------------------------------------------------|
D|---------------------------------------------------------------------------------------------------------|


E|---------------------------------------------------------------------------------12----------------|
B|--8-10-8-10/12--12-12-14-15-14-10-10--12-14-15--14--14--15----------------------|
G|-----------------------------------------------------------------------------------------------------|
D|-----------------------------------------------------------------------------------------------------|
A|-----------------------------------------------------------------------------------------------------|
D|-----------------------------------------------------------------------------------------------------|



E|----------------------------------------------------------------------------------------------------------------------------------|
B|--15--14--15--14-11--13--13--15-16-15--13-11-11/13-13-13--16--17-16--14--12-12-12--7/8---------------|
G|------------------------------------------------------------------------------------------------------------------ ----------------|
D|-----------------------------------------------------------------------------------------------------------------------------------|
A|-----------------------------------------------------------------------------------------------------------------------------------|
D|-----------------------------------------------------------------------------------------------------------------------------------|


D A
Sinar kan pasti menjelma ( menjelma )
Bm G
Teguh dan tabah mengharunginya



D A
Sinar kan pasti menjelma ( menjelma )
Bm G
Teguh dan tabah mengharunginya
D A
Sinar kan pasti menjelma ( menjelma )
Bm G
Teguh dan tabah mengharunginya



Outro :

D A Bm G


#Malaykord
Title: O-two - Orbit Merentasi Masa Chord
Artist: O-two
Review:
Rate: 4 dari 5
Posted On:

Kami tak menyediakan apa-apa download link untuk: MP3


✓ Jika ada sebarang masalah tentang chord lagu diatas sila buat aduan pada Form Report Chord yang disediakan.[REPORT CHORDS]

Comments :

malaykord_image malaykord_image malaykord_image

Tidak Dapat Apa Yang Anda Cari? Request Chord Disini!