Skip to navigation

malaykord_image Download Malaykord Guitar Apps Right Now!
malaykord_image Download Malaykord Guitar Apps Right Now!
Chord List: 09 | A | B | C | D | E | F | G | H | I | J | K | L | M | N | O | P | Q | R | S | T | U | V | W | X | Y | Z | NEW
09 | A | B | C | D | E | F | G | H | I | J | K | L | M | N | O | P | Q | R | S | T | U | V | W | X | Y | Z | NEW | TOP

Zaskia Gotik - 1000 Alasan Chord



Zaskia Gotik - 1000 Alasan Chord

Home > > > Zaskia Gotik - 1000 Alasan Chord


Intro: C# F#m E D 2x

C# F#m E D
tak jelas berita dirimu ada dimana
C# F#m E D
ku cari dirimu tapi tak pernah ketemu
C# F#m E D
1000 alasan setiap kali ku ajak jalan
C# F#m E D
ada saja alasan kau tolak aku dengan senyuman
C# F#m E F#m E
di sini aku, ku menunggu kabar darimu

Reff:
F#m E D
senin selasa waktunya kuliah, rabu kamis alasannya kerja
D C# F#m
jum'at sabtu sampai minggu kok masih gak ketemu
F#m E D
senin selasa ada meeting kerja, rabu kamis les privat waktunya
D C# F#m
jum'at sabtu sampai minggu kok masih gak ketemu

C# F#m E D
1000 alasan setiap kali ku ajak jalan
C# F#m E D
ada saja alasan kau tolak aku dengan senyuman
C# F#m E F#m E
di sini aku, ku menunggu kabar darimu

Reff:
F#m E D
senin selasa waktunya kuliah, rabu kamis alasannya kerja
D C# F#m
jum'at sabtu sampai minggu kok masih gak ketemu
F#m E D
senin selasa ada meeting kerja, rabu kamis les privat waktunya
D C# F#m
jum'at sabtu sampai minggu kok masih gak ketemu

Reff:
F#m E D
senin selasa waktunya kuliah, rabu kamis alasannya kerja
D C# F#m
jum'at sabtu sampai minggu kok masih gak ketemu

senin selasa ada meeting kerja, rabu kamis les privat waktunya
D C# F#m
jum'at sabtu sampai minggu kok masih gak ketemu

Reff:
F#m E D
senin selasa waktunya kuliah, rabu kamis alasannya kerja
D C# F#m
jum'at sabtu sampai minggu kok masih gak ketemu
F#m E D
senin selasa ada meeting kerja, rabu kamis les privat waktunya
D C# F#m
jum'at sabtu sampai minggu kok masih gak ketemu


#Malaykord



Title: Zaskia Gotik - 1000 Alasan Chord
Artist: Zaskia Gotik
Review:
Author:
Rate: 4 dari 5
Posted On:


✓ Jika ada sebarang masalah tentang chord lagu diatas sila buat aduan pada Form Report Chord yang disediakan.[REPORT CHORDS]



Rhoma Irama - Syahdu Chord



Rhoma Irama - Syahdu Chord

Home > > > Rhoma Irama - Syahdu Chord


Intro : G D G
Pria:
G Am C G
Bila kamu di sisiku hati rasa syahdu
G Am C G
Satu hari tak bertemu hati rasa rindu
G C G
'Ku yakin ini semua perasaan cinta
Am G
Tetapi hatiku malu untuk menyatakannya

G Am C G
Bila kamu di sisiku hati rasa syahdu
G Am C G
Satu hari tak bertemu hati rasa rindu

Intro : G Am G Am G

Pria:
G A C G
Bila cintaku terbalas oh bahagia sekali
G A C G
Tapi bila tak terbalas 'ku tak sakit hati
G A C G
Karena aku menyadari siapa 'ku ini
A G
Tak mungkin bagi dirimku menyintai dirimu
Am G
Namun bahagia hatiku
Am G
Bila selalu bersamamu

Wanita:
A G
Cintamu sudah terbalas sejak lama sekali
A G
Tapi kupendam selalu oh di lubuk hati
A G
Ucapanmu yang kutunggu telah kudengar sendiri
A G
Terimalah oh sayangku cinta pertama ini
Am G
Kini bahagia hatiku
Am G
Karena selalu bersamamu

Wanita:
G Am C G
Bila kamu di sisiku hati rasa syahdu
G Am C G
Satu hari tak bertemu hati rasa rindu
G Am G
'Ku yakin ini semua perasaan cinta
G Am G
Tetapi hatiku malu untuk menyatakannya

Duet:

G Am C G
Bila kamu di sisiku hati rasa syahdu
G Am C G
Satu hari tak bertemu hati rasa rindu


#Malaykord



Title: Rhoma Irama - Syahdu Chord
Artist: Rhoma Irama
Review:
Author:
Rate: 4 dari 5
Posted On:


✓ Jika ada sebarang masalah tentang chord lagu diatas sila buat aduan pada Form Report Chord yang disediakan.[REPORT CHORDS]



Rhoma Irama - Kerinduan Chord



Rhoma Irama - Kerinduan Chord

Home > > > Rhoma Irama - Kerinduan Chord


[intro] G Bm Em F D
G Bm Em F D

G Bm
betapa hati rindu pada dirimu
C G
duhai kekasihku
G Bm
segeralah kembali pada diriku
C G
duhai kekasihku

Bm Em
aku sudah rindu
C G
lincah manja sikapmu
Bm Em
aku sangat rindu
C G
kasih sayang darimu

G Bm
semoga kita dapat bertemu lagi
C G
seperti dahulu
G Bm
supaya kita dapat bercinta lagi
C G
seperti dahulu

[interlude] Am Bm Am Em 2x
Em C Em D C G

G C
gelisah hati gelisah
F D G
sejak kepergianmu
G C
tak sabar hati tak sabar
F D G
menanti kedatanganmu

Bm Em
ku coba menantimu walau gelisah
C G
ku kan selalu menanti
Bm Em
dengarkanlah kasihku dengarlah sayang
C G
ku ingin kau kembali

G Bm
semoga kita dapat bertemu lagi
C G
seperti dahulu
G Bm
supaya kita dapat bercinta lagi
C G
seperti dahulu


Bm Em
aku sudah rindu
C G
lincah manja sikapmu
Bm Em
aku sangat rindu
C G
kasih sayang darimu

G Bm
semoga kita dapat bertemu lagi
C G
seperti dahulu
G Bm
supaya kita dapat bercinta lagi
C G
seperti dahulu


#Malaykord



Title: Rhoma Irama - Kerinduan Chord
Artist: Rhoma Irama
Review:
Author:
Rate: 4 dari 5
Posted On:


✓ Jika ada sebarang masalah tentang chord lagu diatas sila buat aduan pada Form Report Chord yang disediakan.[REPORT CHORDS]



Rita Sugiarto - Bunga Chord



Rita Sugiarto - Bunga Chord

Home > > > Rita Sugiarto - Bunga Chord


Intro : Am Dm G Am Em

Am G
Merana kini aku merana
Dm
Kekasih tercinta
Am
Entah kemana
Am G
Sendiri kini ku dibalut sepi
Dm Am
Tiada tempat tuk bercurah lagi

Am G
Dimana kini entah dimana
Dm
Bunga impian
Am
Yang indah dimata kurindu tutur sepamu
G Dm E
Nan Manja saat kau barada disisiku'.
Dm Dm
Kini tinggallah kusendiri
G C Am
Hanya berteman dengan sepi
Dm
Menanti dirimu kembali
G C
Disini ku terus menanti
Am F
Akan kucoba untuk
G Am
Menanti dirimu kekasih

E

Am
Oh bunga'.
G
Dimana kini kau berada
Dm
Jangan biarkan diriku
Am
Dalam kesorangan

Am
Oh bunga'
G
Jangan kau gores luka didada
Dm
Sunguh diriku takkan kuasa
Am
Campak kan kenanga
F
Ho ho ho'.
G Am
Oh bungaku


#Malaykord



Title: Rita Sugiarto - Bunga Chord
Artist: Rita Sugiarto
Review:
Author:
Rate: 4 dari 5
Posted On:


✓ Jika ada sebarang masalah tentang chord lagu diatas sila buat aduan pada Form Report Chord yang disediakan.[REPORT CHORDS]



Rhoma Irama - Gelandangan Chord



Rhoma Irama - Gelandangan Chord

Home > > > Rhoma Irama - Gelandangan Chord


[intro] E A B E 2x

E G#m
Kering sudah rasanya air mataku
A B E
Terlalu banyak sudah yang tertumpah
E G#m
Menangis meratapi buruk nasibku
A B E
Nasib buruk seorang tunawisma

[chorus]
G#m C#m
Langit sebagai atap rumahku
G#m C#m
Dan bumi sebagai lantainya
A B
Hidupku menyusuri jalan
A E
Sisa orang yang aku makan

G#m C#m
Langit sebagai atap rumahku
G#m C#m
Dan bumi sebagai lantainya
A B
Hidupku menyusuri jalan
A E
Sisa orang yang aku makan

E G#m
Jembatan menjadi tempat perlindungan
A B E
Dari terik matahari dan hujan
E G#m
Begitulah hidup yang aku jalani
A B E
Entah sampai kapan hidup begini


#Malaykord



Title: Rhoma Irama - Gelandangan Chord
Artist: Rhoma Irama
Review:
Author:
Rate: 4 dari 5
Posted On:


✓ Jika ada sebarang masalah tentang chord lagu diatas sila buat aduan pada Form Report Chord yang disediakan.[REPORT CHORDS]



Iwan Fals - Bento Chord



Iwan Fals - Bento Chord

Home > > > Iwan Fals - Bento Chord


E
Namaku Bento, rumah real estate
E
Mobilku banyak, harta melimpah
A
Orang memanggilku bos eksekutif
A
Tokoh papan atas, atas segalanya
  E
Asyik...!

E
Wajahku ngganteng, banyak simpanan
E
Sekali lirik oke sajalah
A
Bisnisku menjagal, jagal apa saja
              E
Yang penting aku senang, aku menang
         B           A
Persetan orang susah karena aku
B                   A
Yang penting asyik, sekali lagi
  E
Asyik...!

          E
Khotbah soal moral, omong keadilan
        A
sarapan pagiku
       E        
Aksi tipu-tipu, lobying dan upeti
        B
wow...jagonya

         E
Maling kelas teri, bandit kelas coro
       A
itu kantong sampah
      B                A
Siapa yang mau berguru datang padaku
  B
Sebut tiga kali namaku
A
Bento, Bento, Bento
  E
Asyik...!


#Malaykord



Title: Iwan Fals - Bento Chord
Artist: Iwan Fals
Review:
Author:
Rate: 4 dari 5
Posted On:


✓ Jika ada sebarang masalah tentang chord lagu diatas sila buat aduan pada Form Report Chord yang disediakan.[REPORT CHORDS]



Inteam - Kepastian Chord



Inteam - Kepastian Chord

Home > > > Inteam - Kepastian Chord


Intro :
Am F Am F

Am Dm
Ujian tuhan kepada semua insan
G C
Adalah kehidupan ini
Dm
Yang baik menjadi tuntutan
E
Yang buruk dijauhkan

Am
Syurga yang dijanjikan
G
Bukanlah suatu khayalan
F E
Tentang nikmat berpanjangan ilahi

Am
Neraka yang tercipta
G
Menghimpun azab derita
F E
Tangisan kesengsaraan insan

*

Am Dm
Syurga adalah kelazatan
G C
Terbentang buat hamba beriman
F
Yang kasihkan tuhannya
Am
Yang kasihkan rasulnya
F E
Yang kasih agamanya

Am Dm
Neraka tempat kemurkaan
G C
Antara kedurjanaan insan
F
Yang lupakan tuhannya
Am
Yang lupakan rasulnya
F E
Yang lupa agamanya

Am Dm
Siapakah yang lebih mulia
G C
Dari mereka yang tidak lupa
Am Dm
Janji allah adalah Kepastian
G E Am
dan nikmat syurga adalah indah

F Dm Bdim7 E


#Malaykord



Title: Inteam - Kepastian Chord
Artist: Inteam
Review:
Author:
Rate: 4 dari 5
Posted On:


✓ Jika ada sebarang masalah tentang chord lagu diatas sila buat aduan pada Form Report Chord yang disediakan.[REPORT CHORDS]



Inteam - Kalimah Cinta Chord



Inteam - Kalimah Cinta Chord

Home > > > Inteam - Kalimah Cinta Chord


Am              Dm
Pepohon cintaku kian merimbun
G                C
Semakin dicantas makin bertunas
Dm             Am
Tidak mampu mendustai hatiku
E
Rasa cinta fitrah manusia

Siapalah aku menolak cinta
Yang hadir di jiwa tanpa dipaksa   ( Ulang )
Hidup ini tidak akan sempurna
Tanpa cinta dari Tuhan Yang Esa

G                C
Adam Hawa bercinta di Syurga
Dm                E
Angkara iblis terpisah menderita
G                 C
Kerana cinta mereka setia
Dm         E
Bertemu di dunia
Am             Dm
Dengan cinta kenal Pencipta
F               E
Dengan cinta kenal RasulNya
Am              Dm
Kerana cinta kenal saudara
F           E
Bahagia keluarga
Am      
Hidup tanpa cinta
Dm
Sengsaralah jiwa
G
Sengketa dan dusta
C
yang merajai jiwa
Dm                  E
Di batasan cinta syariat terjaga
F              E            Am
Tanpa keraguan tanpa kesangsian

Betapa sucinya kasihMu Tuhan
Betapa agungnya kebesaranMu   ( ulang chord intro yg sama)
Diri ini mengharapkan cintaMu
Kekalkanlah rasa kehambaan ku


#Malaykord



Title: Inteam - Kalimah Cinta Chord
Artist: Inteam
Review:
Author:
Rate: 4 dari 5
Posted On:


✓ Jika ada sebarang masalah tentang chord lagu diatas sila buat aduan pada Form Report Chord yang disediakan.[REPORT CHORDS]



Inteam - Impian Kasih Chord



Inteam - Impian Kasih Chord

Home > > > Inteam - Impian Kasih Chord


Intro :
C F G C

C        Em       F           G
Kasih dengarlah hatiku berbicara
C      Em          F         G
Kasih izinkanlah diriku bertanya
Am         E       Am
Bisakah cinta bersemi
      F       Dm    G
Mengundang restu Ilahi
   C      Em       Am
Adakah bahgia yang diimpi
   F              G
Menjadi satu realiti.

C        Em       F          G
Kasih ku sedari kekurangan diri
C        Em       F         G
Kasih ku insafi kelemahan diri
    Am      E       Am
Ku ingin sunting dirimu
     F        Dm    G
Menjadi permaisuri hatiku
    C     Em        Am
Sebagai isteri yang berbudi
      F            G
Kebanggaan para suami

C             Am
Wanita hiasan dunia
  F                     G
Seindah hiasan adalah wanita solehah
C     Em         Am
Yang akan membahagiakan
    F                 G
Syurga di dalam rumah tangga

      C           Em
Hanya itu yang ku inginkan
       F                 G
Dari insan yang amat kusayang
     C            Em
Damaikanlah resah hatiku
       F                  C
Aku rindu kasih dan sayangmu
      F        Dm
Terimalah seadanya
          G                C
Akulah hiasan pelamin hidupmu

Instrument :
C F C F G

     Am          Em
Andainya tiada jodoh
      Am          Em
Untuk ke singgahsana
     Am      Em  F
Ku pasrahkan segalanya
         Dm                 G
Kerna takdir yang akan menentukan
         C    Am    
Impian kasih
         F
Impian kasih
         G
Impian kasih
            C
Oh Impian kasih


#Malaykord



Title: Inteam - Impian Kasih Chord
Artist: Inteam
Review:
Author:
Rate: 4 dari 5
Posted On:


✓ Jika ada sebarang masalah tentang chord lagu diatas sila buat aduan pada Form Report Chord yang disediakan.[REPORT CHORDS]



IamNeeta - Jatuh Cinta Chord



IamNeeta - Jatuh Cinta Chord

Home > > > IamNeeta - Jatuh Cinta Chord


Intro :
A

G
Aku tak bisa menyedari
C G
Bau cinta,aku..
Em G
Tentang kamu
C D
Tak pernah ku hargai

Chorus :

C
Kini aku
B7
Jatuh cinta
Em
Pada pertemuan
G
Yang terindah
C
Telah membuat ku
D
Dekat pada mu

Verse 2 :

G
Kini ku bisa menyedari
C G
Erti cinta kamu
Em G
Tentang aku
C D
Selalu kau hargai

Chorus Verse 2 :
C
Kini aku
B7
jatuh cinta
Em
Pada diri kamu
G C
Segenap hujung dunia ku
D
Ingin kau tahu

C
Kini aku
B7
jatuh cinta
Em
Semua tentang kamu
G C
Sehingga hujung dunia ku
D G G
Ingin kau tahu (jatuh cinta)
G7
oooo…

Solo & Chorus Verse 2


#Malaykord



Title: IamNeeta - Jatuh Cinta Chord
Artist: IamNeeta
Review:
Author:
Rate: 4 dari 5
Posted On:


✓ Jika ada sebarang masalah tentang chord lagu diatas sila buat aduan pada Form Report Chord yang disediakan.[REPORT CHORDS]



IamNeeta - Tuhan Tolong Aku Chord



IamNeeta - Tuhan Tolong Aku Chord

Home > > > IamNeeta - Tuhan Tolong Aku Chord


Intro :

|—————————————————————————-|
|—–7–8–7–5–7————10–7——-7–8–7–5————–10–7—–|
|——————–4-4-4–7————————–7–4-4-4–7———–|
|—————————————————————————-|
|—————————————————————————-|
|—————————————————————————-|

|—————————————–|
|–7–8–7–5—————10–8-7-8-7—|
|————–7–4-4-4–7—————-|
|—————————————–|
|—————————————–|
|—————————————–|
G# D#
Hancur segala kisah hidupku
Menjadi,mimpi mimpi yang tak indah
walau….hati kecil ku menjerit
tak mungkin
mimpi menjadi milik ku..

Chorus :

Tuhan tolong aku
carikan penyeri
untuk dalam hidup ku
ku perlu dia
ingin jadi milik ku
menjaga hatinya..ow ow ow

bukan mahu aku
yang telah terjadi
luar kuasa tangan ku
bawa lah aku hingga satu persatu
mencari hatinya..

Hilang segala ruang hidupku
Menjadi warna warna yang terpendam
Walau..hati kecil ku menjerit!
Tak mungkin..mimpi menjadi milik ku..

Ulang dari chorus

Reff :
F,G#,D#,Bb,F,G#,C,Bb

Andainya aku bisa terbang
melebarkan sayap kesana
dan terbang hingga ke jauh
merintasi garis dunia….oow…

Solo :

|—————————————————————————-|
|—–7–8–7–5–7————10–7——-7–8–7–5–7————10–7—-|
|——————–4-4-4–7—————————–4-4-4–7———–|
|—————————————————————————-|
|—————————————————————————-|
|—————————————————————————-|

|——————–7-7–9-9–10-10–12-12–14——————————|
|—–7–8–7–5–7——————————10–8-7-8-7—————–|
|—————————————————————————-|
|—————————————————————————-|
|—————————————————————————-|
|—————————————————————————-|

Ulang chorus

Tuhan tolong aku (4x)


#Malaykord



Title: IamNeeta - Tuhan Tolong Aku Chord
Artist: IamNeeta
Review:
Author:
Rate: 4 dari 5
Posted On:


✓ Jika ada sebarang masalah tentang chord lagu diatas sila buat aduan pada Form Report Chord yang disediakan.[REPORT CHORDS]



IamNeeta ft. Najwa Latif, Mimie Haris, Deanna Hussin - Hari Raya Chord



IamNeeta ft. Najwa Latif, Mimie Haris, Deanna Hussin - Hari Raya Chord

Home > > > IamNeeta ft. Najwa Latif, Mimie Haris, Deanna Hussin - Hari Raya Chord


Intro :
D Bm Em A

D
Hari Raya
Bm
Genap sudah sebulan berpuasa
Em
Hari Ra-a-a-ya
A
Mari ramai-ramai kita gembira

D
Di hari raya
Bm
Kita saling bermaaf-maafan
Em
Hari Ra-a-a-ya
A
Mari ramai-ramai jemput ke rumah

D
Sesudah sebulan kita berpuasa
Em
Menahan lapar dan juga dahaga
A
Erti puasa memberikan kita
D
Nikmat sebenar hari aidilfitri

*

D
Hari Raya
Bm
Genap sudah sebulan berpuasa
Em
Hari Ra-a-a-ya
A
Mari ramai-ramai kita gembira
D
Di hari raya
Bm
Kita saling bermaaf-maafan
Em
Hari Ra-a-a-ya
A
Mari ramai-ramai jemput ke rumah

G
Mari balik kampung
D
Jumpa ayah ibunda
G
Mari balik kampung
Am A
Kita rai lebaran

Ulang *


#Malaykord



Title: IamNeeta ft. Najwa Latif, Mimie Haris, Deanna Hussin - Hari Raya Chord
Artist: IamNeeta
Review:
Author:
Rate: 4 dari 5
Posted On:


✓ Jika ada sebarang masalah tentang chord lagu diatas sila buat aduan pada Form Report Chord yang disediakan.[REPORT CHORDS]



IamNeeta - Kasih Ibu Chord



IamNeeta - Kasih Ibu Chord

Home > > > IamNeeta - Kasih Ibu Chord


Intro :
E A B E

E
Kasih yang telah kau berikan
A
Indah seperti bintang
B
Cinta yang telah kau curahkan
E
Bagai warna pelangi

E
Hidup yang telah kau berikan
A
Terbaik buat kami
B
Terhebat kau memang terhebat
E
Aku memujamu

Chorus :

E
Owh ibu
A
Aku juga mencintaimu
B
Owh ibu
E
Engkau slalu didalam hatiku
E
Owh ibu
A
Dalam setiap doa aku
B
Ku selalu
E
Menyebut namamu

E
Saat aku sakit dan lemah
A
Engkau mengobati aku
B
Saat aku sunyi dan sepi
E
Engkau slalu disisiku

E
Biar penat lelah tubuhku
A
Engkau tetap bersama kami
B
Terhebat memang terhebat
E
Engkaulah ibuku

Ulang Chorus


#Malaykord



Title: IamNeeta - Kasih Ibu Chord
Artist: IamNeeta
Review:
Author:
Rate: 4 dari 5
Posted On:


✓ Jika ada sebarang masalah tentang chord lagu diatas sila buat aduan pada Form Report Chord yang disediakan.[REPORT CHORDS]



IamNeeta ft. Najwa Latif - Kau Pergi Jua Chord



IamNeeta ft. Najwa Latif - Kau Pergi Jua Chord

Home > > > IamNeeta ft. Najwa Latif - Kau Pergi Jua Chord


Intro :
C D G (2x)

[Neeta]
C   D     G
Kau pergi jua
C    D     G
Dari hidup ku
C    D     G
Kini sendiri
C   D    G
Di hari-hariku

         C   D   G
Pulang ke dakapanku..
        C      D        G
Aku ingin kau selalunya di sini
      C        D   G  D  Em   G    Am   D
Hanya hadirmu bisa menyatukan masa kita berdua

[Najwa Latif]
C   D     G
Kau pergi jua
C    D     G
Dari hidup ku
C    D     G
Kini sendiri
C   D    G
Di hari-hariku

         C   D   G
Pulang ke dakapanku..
        C      D        G
Aku ingin kau selalunya di sini
       C       D   G  D  Em   G      Am      D
Hanya hadirmu bisa melenyapkan segala sunyi di sini

C D G (2x)

[Neeta & Najwa Latif]
         C   D   G
Pulang ke dakapanku..
        C      D        G
Aku ingin kau selalunya di sini
      C        D   G  D  Em   G    Am   D
Hanya hadirmu bisa menyatukan masa kita berdua…

         C   D   G
Pulang ke dakapanku..
        C      D        G
Aku ingin kau selalunya di sini
       C       D   G  D  Em   G      Am      D
Hanya hadirmu bisa melenyapkan segala sunyi di sini

C   D     G
Kau pergi jua
C    D     G
Dari hidup ku
C    D     G
Kini sendiri
C   D    G
Di hari-hariku
C   D    G   C   D    G
Kini sendiri di hari-hariku…..


#Malaykord



Title: IamNeeta ft. Najwa Latif - Kau Pergi Jua Chord
Artist: IamNeeta
Review:
Author:
Rate: 4 dari 5
Posted On:


✓ Jika ada sebarang masalah tentang chord lagu diatas sila buat aduan pada Form Report Chord yang disediakan.[REPORT CHORDS]



IamNeeta - Terima Kasih Chord



IamNeeta - Terima Kasih Chord

Home > > > IamNeeta - Terima Kasih Chord


Intro :
Dm G C Am

Dm        G         C             Am          Dm
Tidak pernah ku rasa perasaan yang begini
G               C       Am
tulusku mencintaimu
Dm        G         C          Am
semua kerna dirimu ku berubah
Dm                     G           C      Am
hidup ini penuh dengan senyuman

Chorus :

C                   Am
Oh sayang, datanglah
Dm                G
kuinginkan dirimu
C               Am
dekatlah padaku
Dm                G
kurindukan pelukmu

C                         Am   Dm
Terima kasih atas segalanya
G                 C               Am       Dm
yang telah kau beri amat ku hargai
G                               C           Am
setiap ku simpan di dalam hati
Dm       G     C       Am
penuh riang tawa mesra
Dm     G         C
terus terukir dihati

Dm                   G
siapa sangka kan bahagia
C               Am
bila dulu pernah luka
Dm                  G
cinta datang tak diduga
C          Am      Dm
bawa hingga syurga

Solo :
F G C Am F G C


#Malaykord



Title: IamNeeta - Terima Kasih Chord
Artist: IamNeeta
Review:
Author:
Rate: 4 dari 5
Posted On:


✓ Jika ada sebarang masalah tentang chord lagu diatas sila buat aduan pada Form Report Chord yang disediakan.[REPORT CHORDS]



Izzue Islam - Rajuk Chord



Izzue Islam - Rajuk Chord

Home > > > Izzue Islam - Rajuk Chord


Dm A# A
Kau coretkan lukisan hidupku
F Dm A# A
dengan warna warna kelembutan
Dm Gm A
kuhiaskan di kamar cinta
A# F A
biar menjadi tanda

Gm A# A
kau coretkan lukisan hidupku
Dm Gm A
dengan warna warna kerinduan
Dm Gm A
kau hiaskan ditaman cinta
A# A Dm
biar menjadi tanda

Dm D# A Dm
rindu yang kau tinggalkan padaku
A# A
membawa aku kedasarnya
Dm Gm A Dm
kau renangi dengan hilai tawamu
A# A Dm
kau biarkan aku terlena

B E Gm E
ku harap kau mengerti kasih
B E
ku harap kau terima sayang
A Dm
andai aku tiada lagi disini
Gm A# B A
andai ku bukan lagi milikmu


#Malaykord



Title: Izzue Islam - Rajuk Chord
Artist: Izzue Islam
Review:
Author:
Rate: 4 dari 5
Posted On:


✓ Jika ada sebarang masalah tentang chord lagu diatas sila buat aduan pada Form Report Chord yang disediakan.[REPORT CHORDS]



Izzue Islam ft. Sharifah Sakinah - Sampaikan Rindu Chord



Izzue Islam ft. Sharifah Sakinah - Sampaikan Rindu Chord

Home > > > Izzue Islam ft. Sharifah Sakinah - Sampaikan Rindu Chord


Intro :
Cm F Gm
Cm D Gm (2x)

Cm D Gm
Oh bulan sampaikan rinduku
Cm D Gm
Oh bintang kirimkan cintaku
Cm D Gm
Yang hilang pastikan bersatu
Cm D Gm
Oh sayang di dalam mimpimu

Cm D G
Oh bulan sampaikan rinduku
Cm D G
Oh bintang kirimkan cintaku
Cm D Gm
Yang hilang mungkinkah bersatu
Cm D Gm
Oh sayang di mana dirimu

D Gm
Malam ini aku sendiri
D Gm
Menanti dan terus menanti
D Gm
Malam ini aku sendiri lagi
Cm D Gm
Menanti dan terus menanti

Cm F
Usah ditangis lagi
Bb Gm
Usah dirindu lagi
Cm D Gm
Pasti kita bertemu nanti
Cm F
Usah ditangis lagi
Bb Gm
Usah dirindu lagi
Cm D Gm
Pasti kita bertemu pasti


#Malaykord



Title: Izzue Islam ft. Sharifah Sakinah - Sampaikan Rindu Chord
Artist: Izzue Islam
Review:
Author:
Rate: 4 dari 5
Posted On:


✓ Jika ada sebarang masalah tentang chord lagu diatas sila buat aduan pada Form Report Chord yang disediakan.[REPORT CHORDS]



Izzue Islam - Kau, Aku Dan Waktu Chord



Izzue Islam - Kau, Aku Dan Waktu Chord

Home > > > Izzue Islam - Kau, Aku Dan Waktu Chord


Gm Dm
di sini hati yang menanti..
D# F
menanti tanpa pasti
Gm Dm
di sana dia yang menunggu..
D# F
menunggu tanpa jemu

Cm D Gm
kau, aku dan waktu
D# Bb
kau, aku dan rindu

D# F
uh.. Tuhan tolonglah..
Bb Am Gm
aku pinta cuma satu nyawa
D# F Bb
agar dapat aku sebut namamu

D# F
Tuhan tolonglah..
Bb Am Gm
aku pinta cuma satu cinta
D# F Gm
aku sebenarnya rindu

Solo :
F Bb Cm Gm F Gm


#Malaykord



Title: Izzue Islam - Kau, Aku Dan Waktu Chord
Artist: Izzue Islam
Review:
Author:
Rate: 4 dari 5
Posted On:


✓ Jika ada sebarang masalah tentang chord lagu diatas sila buat aduan pada Form Report Chord yang disediakan.[REPORT CHORDS]



Izwan Pilus - Indah Lelapku Chord



Izwan Pilus - Indah Lelapku Chord

Home > > > Izwan Pilus - Indah Lelapku Chord


Bm G D A

Bm          G            D                A
dalam lelapku ini terbayang wajah seakan puteri
Bm          G            D                A
dalam lelapku ini munculnya dia bagai bidadari

Bm G D A (2x)

Bm          G            D                A
dalam renungku ini sepenuhnya ku ingin mendekati
Bm          G            D                A
dalam hatiku ini sepenuhnya ku ingin memiliki

Bm     G     D            A
dan bila cuba bangun dari lelapku
Bm    G      D            A
dan bila ku cuba buka kan mataku

G         D        Bm              A
dan hilang segala rupa yang telah ku bayang
G         D       Bm             A
dan hilang segala rasa yang telah ku rasa
G         D      Bm            A
dan hilang segala semua harapanku
G         D     Bm              A
dan hilang cerita indah dalam tidurku

verse 2 :
*sama macam verse 1

dalam renungku ini sepenuhnya ku ingin mendekati
dalam hatiku ini sepenuhnya ku ingin memiliki
dan bila cuba bangun dari lelapku
dan bila ku cuba buka kan mataku

Chorus :

Em       G          A
nyatalah dia hanya dalam mimpiku
Em       G          A
dan kisah aku memilik cinta hati
Em       G          A
nyatalah dia hanya kekasih pelukku
Em       G          A            B
sampai sini kisah aku dengan nya

C G Bm A (2x)
C  G D  A

G A
Ulang verse


#Malaykord



Title: Izwan Pilus - Indah Lelapku Chord
Artist: Izwan Pilus
Review:
Author:
Rate: 4 dari 5
Posted On:


✓ Jika ada sebarang masalah tentang chord lagu diatas sila buat aduan pada Form Report Chord yang disediakan.[REPORT CHORDS]



Izwan Pilus - Kembali Senyum Chord



Izwan Pilus - Kembali Senyum Chord

Home > > > Izwan Pilus - Kembali Senyum Chord


Am                D
Pantas kau diam membisu
       G                 C
Ada garis sendu di wajahmu
          Am                B           Em
Salahkah sekadar aku bertanya berikan jawapan
  E  
Ohoo...
G      Am            D
  Kuatkah ikatan cinta
        G             C
Apa mungkin kasihmu setia
         Am                 C
Tak ku duga air mata berlinang
         B
Luka perasaan mu sayang

     Em                  Am
Sengaja hatimu inginku duga
        D                          G
Tak terlintas fikiran mencuriga cinta
      C                    F#          B
Ku tahu seputih dingin salju itu warna cintamu
     Em                          Am
Kekasih usah merasa ragu dan sangsi
       D                      G
Kekasih cintaku takkan terbelah bagi
          C    B    Em   C          Am
Keringkanlah air mata di pipi mu sayang
        B
Kembali senyum


#Malaykord



Title: Izwan Pilus - Kembali Senyum Chord
Artist: Izwan Pilus
Review:
Author:
Rate: 4 dari 5
Posted On:


✓ Jika ada sebarang masalah tentang chord lagu diatas sila buat aduan pada Form Report Chord yang disediakan.[REPORT CHORDS]



Iwan AF8 - V.I.P Chord



Iwan AF8 - V.I.P Chord

Home > > > Iwan AF8 - V.I.P Chord


Intro :
Am F C G (2x)

Am F C G
Kau takkan percaya apa yang ku dengar
Am F C G
Khabarnya kau dah kecewa
Am F C G
Dengan diri ku yang tak luangkan masa
Am F
Masa bercengkerama bersama mu

C G
Oh kasih kau perlu tahu
Am F C G
Tiada yang penting selain cintamu oh sayang
Am F C G
Tiada yang ku sanjung hanya dirimu seorang

Am F
Berikan aku peluang
C G Am F
Untuk buktikan padamu oh oh…
C G
Kau VIP di hatiku

Am F C G
Mungkin ku tak arif memahamkan cinta
Am F C G
Ku sangka kau bisa faham
Am F C G
Ku sedar cara ku tidak cukup mesra
Am F
Masa bercengkerama bersamamu

C G
Oh kasih kau perlu tahu
Am F C G
Tiada yang penting selain cintamu oh sayang
Am F C G
Tiada yang ku sanjung hanya dirimu seorang

Am F
Berikan aku peluang
C G Am F
Untuk buktikan padamu oh oh..
C G Am F
Kau VIP di hatiku oh oh..
C G Am
Kau VIP di hatiku

Am F Am F
Walau tidak bersama engkau selalu di hatiku
Am F Am F
Walau tidak bersama engkau selalu di hatiku
Am F Am F
Walau tidak bersama engkau selalu di hatiku

G Am

C G
Kasih kau perlu tahu
Am F C G
Tiada yang penting selain cintamu oh sayang
Am F C G
Tiada yang ku sanjung hanya dirimu seorang
Am F
Berikan aku peluang
C G Am F
Untuk buktikan padamu oh oh..
C G Am F
Kau VIP di hatiku oh oh..
C G Am
Kau VIP di hatiku


#Malaykord



Title: Iwan AF8 - V.I.P Chord
Artist: Iwan
Review:
Author:
Rate: 4 dari 5
Posted On:


✓ Jika ada sebarang masalah tentang chord lagu diatas sila buat aduan pada Form Report Chord yang disediakan.[REPORT CHORDS]



Iwan - Fantasia Musim Cinta Chord



Iwan - Fantasia Musim Cinta Chord

Home > > > Iwan - Fantasia Musim Cinta Chord


       Am       E
Ku genggam awan kelabu
      E              F
Ku gapai langit yang biru
     G            C
Arah kita kian bersatu
       B           Em
Tinggalkan lagu rindumu

        Am         E
Langkah kita makin hampir
      E             F
Kutahu kau menungguku
     G            C         E
Dihujung titik menantilah aku
        Am    
Alam mimpi...

A    Dm               Em
   Bulan bintang sang suria
      Am          Am
Bagai saksi janji kita
F-Dm        G
Meniti hari-hari
        A
Yang indah ini...

  Dsus4    D     Em
Gunung   akan kudaki
   Am            F
Lautan kan aku renangi
  B          B
Demi memburu mimpi
        E   -  f -  E
Yang pasti

      Am            Em
Pintu kini telah terbuka
                    F
Kita pun langkah bersama
Dm---G           C
Fantasi mimpi berakhir
      E      Am
Cinta pun berpadu

       E     Em     Am
Hari-hari yang berlalu
      G     F        Em     Am
Menjelma bukanlah mimpi lagi
       E             Am
Umpama sungai dan tebing
    G       F       E    F
Seiring, sehati dan sejiwa



#Malaykord



Title: Iwan - Fantasia Musim Cinta Chord
Artist: Iwan
Review:
Author:
Rate: 4 dari 5
Posted On:


✓ Jika ada sebarang masalah tentang chord lagu diatas sila buat aduan pada Form Report Chord yang disediakan.[REPORT CHORDS]



Irwansyah - Tentang Perasaanku Chord



Irwansyah - Tentang Perasaanku Chord

Home > > > Irwansyah - Tentang Perasaanku Chord


Intro :
Em Am D B
Em C B Em

       Em        Am
Aku takkan lelah menunggu
          D          G
Hingga waktu ajal menjemputku
          C          Am           B
Takkan pernah ada sesalku untuk menunggumu

      Em        Am
Aku harus tetap menunggu
          D      G
Hingga nanti aku berbaring
         C         Am         B
Sampai mati aku akan tetap menunggumu

Chorus :

      Em                      Am
Ingin ku gapai bulan dan ku petik bintang
      D                      G
Ingin ku berikan semua hanya untukmu
     C                      Am         B
Agar kau tahu besarnya cintaku kepada dirimu

     Em                       Am
Ku ingin kau tahu tentang perasaanku
     D                        G
Ku ingin kau tahu besar cinta padamu
      C                    Am
Ingin ku berikan sisa waktuku
         B              
Dan sisa umurku sampai mati

Intro :
Em Am D B C B Em

      Em        Am
Aku harus tetap menunggu
          D      G
Hingga nanti aku berbaring
         C         Am         B
Sampai mati aku akan tetap menunggumu

Chorus :

      Em                      Am
Ingin ku gapai bulan dan ku petik bintang
      D                      G
Ingin ku berikan semua hanya untukmu
     C                      Am         B
Agar kau tahu besarnya cintaku kepada dirimu

     Em                       Am
Ku ingin kau tahu tentang perasaanku
     D                        G
Ku ingin kau tahu besar cinta padamu
      C                    Am
Ingin ku berikan sisa waktuku
         B      C#        
Dan sisa umurku

Chorus :

      F#m                     Bm
Ingin ku gapai bulan dan ku petik bintang
      E                      A
Ingin ku berikan semua hanya untukmu
     D                      Bm         C#
Agar kau tahu besarnya cintaku kepada dirimu

      F#m                     Bm
Ingin ku gapai bulan dan ku petik bintang
      E                      A
Ingin ku berikan semua hanya untukmu
     D                      Bm         C#
Agar kau tahu besarnya cintaku kepada dirimu

     F#m                       Bm
Ku ingin kau tahu tentang perasaanku
     E                        A
Ku ingin kau tahu besar cinta padamu
      D                    Bm
Ingin ku berikan sisa waktuku
         C#              
Dan sisa umurku sampai mati


#Malaykord



Title: Irwansyah - Tentang Perasaanku Chord
Artist: Irwansyah
Review:
Author:
Rate: 4 dari 5
Posted On:


✓ Jika ada sebarang masalah tentang chord lagu diatas sila buat aduan pada Form Report Chord yang disediakan.[REPORT CHORDS]



Irwansyah ft. Zaskia Sungkar - I Miss You Chord



Irwansyah ft. Zaskia Sungkar - I Miss You Chord

Home > > > Irwansyah ft. Zaskia Sungkar - I Miss You Chord


Intro :
B E B F#

B              E
kekasih percayakah kamu
F#               B
aku slalu menunggu
B              E
kekasih percayakah kamu
F#              B
aku ingin bertemu

C#m                D#m
kalau kau cinta pasti kau tau
E      C#   F#  D-E
isi di hatiku

A                D
kekasihku percayakah kamu
E               A
aku slalu menunggu
A                D
kekasihku percayakah kamu
E              A
aku ingin bertemu

Bm                 C#m
kalau kau cinta pasti kau tahu
D      B   E
isi di hatiku

Chorus :

               A            Bm
ku bilang miss you pada dirimu
           E          A
agar kau tahu isi hatiku
             Bm                   E
yang slalu menunggu di setiap waktu
              A
karena I miss you

A                D
kekasihku percayakah kamu
E               A
aku slalu menunggu
A                D
kekasihku percayakah kamu
E              A
aku ingin bertemu

Bm                 C#m
kalau kau cinta pasti kau tau
D      B   E
isi di hatiku

Solo :
D Bm D Bm
E D C#m Bm

Chorus :

               A            Bm
ku bilang miss you pada dirimu
           E          A
agar kau tahu isi hatiku
             Bm                   E
yang slalu menunggu di setiap waktu
              A   F#
karena I miss you

               B            C#m
ku bilang miss you pada dirimu
           F#          B
agar kau tahu isi hatiku
             C#m                  F#
yang slalu menunggu di setiap waktu
              B  
karena I miss you
             C#m                  F#
yang slalu menunggu di setiap waktu
              B  
karena I miss you

B E


#Malaykord



Title: Irwansyah ft. Zaskia Sungkar - I Miss You Chord
Artist: Irwansyah
Review:
Author:
Rate: 4 dari 5
Posted On:


✓ Jika ada sebarang masalah tentang chord lagu diatas sila buat aduan pada Form Report Chord yang disediakan.[REPORT CHORDS]



Irwansyah - Ku Tunggu Jandamu Chord



Irwansyah - Ku Tunggu Jandamu Chord

Home > > > Irwansyah - Ku Tunggu Jandamu Chord


       D
Kamu aku cocok
                       B
sejak dulu sudah bersama
                      G
Boleh di bilang berpacaran
                A
berdua kita serasi

Verse 2 :

           D
Tapi kini lain
                            B              
kau malah berpaling dariku
                                   G
dan berjanji dengan yang lain
                           A
Aku ini kau campakkan

Chorus :

                     D           G
Namun cintaku tak bisa
B               A
begitu saja menerima
               D            G
kenyataan kau pergi dariku
B                     A
Aku masih tetap cinta
          G                                A
lalu kuputuskan kutunggu jandamu

Verse 3 :

               D
Kutunggu jandamu
                  B
Maaf bila ku menyumpahi
                     G
sakit aku cinta padamu
                           A
kau janda pun aku mau

Ulang chorus
Ulang verse 3
Ulang chorus

D                                G           B    A
Tak bisa terima kau pergi… dariku
D                   G             B       A
Aku masih tetap cinta
         G                                A
lalu kuputuskan kutunggu jandamu



#Malaykord



Title: Irwansyah - Ku Tunggu Jandamu Chord
Artist: Irwansyah
Review:
Author:
Rate: 4 dari 5
Posted On:


✓ Jika ada sebarang masalah tentang chord lagu diatas sila buat aduan pada Form Report Chord yang disediakan.[REPORT CHORDS]



Irwansyah ft. Melly Goeslow - Love Story Chord



Irwansyah ft. Melly Goeslow - Love Story Chord

Home > > > Irwansyah ft. Melly Goeslow - Love Story Chord


Intro :
Bm Em A D
G Em C#C F#

Cm G A# Fm
bila cinta endapkan semua harapan
G# G Cm G# G
jalan terjal dan mematikan pasti ku tempuh juga

Dm A D Gm
bila cinta seribu tahun akan ku tunggu
Em A Dm
walau tubuh tertimbun bukit
A# A
tanganku menggapaimu

Chorus :

Dm Gm
love story let`s make it history
C A Dm
sejarah kisah cinta kita
A# Gm E A
menguasai bumi mengalahkan semua yang paling terindah
Dm Gm
love story let`s make it history
C A Dm
biarpun seribu bencana
A# Gm
meremukkan tubuh kita
E A
namun cinta kita tetap akan utuh
Dm
love story

Solo :
Em Am D B Em
D# Cm G# G

Cm G A# Fm
bila cinta seribu tahun akan ku tunggu
G# G Cm
walau tubuh tertimbun bukit
G# G
tanganku menggapaimu

Chorus :

Cm Gm
love story let`s make it history
A# G Cm
sejarah kisah cinta kita
G# Fm D G A
menguasai bumi mengalahkan semua yang paling terindah
Dm Gm
love story let`s make it history
C A Dm
biarpun seribu bencana
A# Gm
meremukkan tubuh kita
E A
namun cinta kita tetap akan utuh

Solo :
Dm A# A# A Dm

A# Gm
meremukkan tubuh kita
E A
namun cinta kita tetap akan utuh

Dm A# Gm A
love story
Dm A# Gm A Dm
love story Love Story


#Malaykord



Title: Irwansyah ft. Melly Goeslow - Love Story Chord
Artist: Irwansyah
Review:
Author:
Rate: 4 dari 5
Posted On:


✓ Jika ada sebarang masalah tentang chord lagu diatas sila buat aduan pada Form Report Chord yang disediakan.[REPORT CHORDS]



Irwansyah - Perempuanku Chord



Irwansyah - Perempuanku Chord

Home > > > Irwansyah - Perempuanku Chord


Intro :
C

C
biarkan aku di sini untukmu
Am
aku hanya ingin menghibur malam ini
F
malam yg pasti menyenangkan untukmu
G
dan tentu untukku

C
biarkan di sini aku bernyanyi
Am
hanya untukku dan untuk menghibur kamu
F
dan aku yakin senyummu tulus dan jujur
G
hanya untukku

Reff :

C Am
perempuanku engkau cintaku
Em A Dm G
tak mungkin bisa bila aku jauh darimu
C Am
bisa g.ila ku pasti sedih
Em A Dm G
ku cinta engkau cinta pada perempuanku

Intro :
C

*

C
semakin lama semakin ku tahu
Am
maksud hati tak hanya mencintaimu
F
ku ingin habiskan hidupku
G
hanya untukmu

Ulang reff

Intro :
C Am C G

Ulang *
Ulang reff


#Malaykord



Title: Irwansyah - Perempuanku Chord
Artist: Irwansyah
Review:
Author:
Rate: 4 dari 5
Posted On:


✓ Jika ada sebarang masalah tentang chord lagu diatas sila buat aduan pada Form Report Chord yang disediakan.[REPORT CHORDS]



Irwansyah - Pencinta Wanita Chord



Irwansyah - Pencinta Wanita Chord

Home > > > Irwansyah - Pencinta Wanita Chord


Intro :
Cm - F - Cm - Bb (2x)

Verse 1 :

Gm              D
Kutemukan dalam pencarian
D7                 Gm
cinta sejati untuk hidupku
Cm                  Gm
kurang lebih yang seperti dia
D#                 D
kuharap dalam cintaku

Verse 2:

Gm               D
ku tak mau menjanjikannya
D7                 Gm
pasti bahagia bila denganku
Cm           Gm
biar dia rasakan sendiri
D#                  D
betapa gilanya cintaku

Chorus :

      Cm                F
aku memang pencinta wanita
              Bb
namunku bukan buaya
     D#             Cm
yang setia pada seribu gadis
D                  Gm
ku hanya mencintai dia

      Cm                F
aku memang pencinta wanita
                 Bb
yang lembut seperti dia
 D#                  Cm
ingin saat ku akhiri semua
D
kucari yang dalam hidup
Cm               Am             D
cintaku ternyata kumau hanyalah dia

Verse :

      Cm               F
aku memang pencinta wanita
                Bb
namun kau bukan buaya
     D#             Cm
yang setia pada seribu gadis
D                   Gm
kau hanya mencintai aku

Chorus :

Cm - F
pencinta wanita
Cm - F
mencintai dia
Cm - Bb    Gm
hanyalah dia



#Malaykord



Title: Irwansyah - Pencinta Wanita Chord
Artist: Irwansyah
Review:
Author:
Rate: 4 dari 5
Posted On:


✓ Jika ada sebarang masalah tentang chord lagu diatas sila buat aduan pada Form Report Chord yang disediakan.[REPORT CHORDS]



Irwansyah - My Heart Chord



Irwansyah - My Heart Chord

Home > > > Irwansyah - My Heart Chord


    Bm  Bb_F#  Em6  G#_E  Dm6  G_D#  Bbm6  F#_D  Cm6  D#

E----x----6-----x----4-----x----3-----x-----2-----x----6--------|
B----7----7-----5----5-----3----4-----x-----3-----1----8--------|
G----7----6-----4----4-----2----3-----3-----2-----0----8--------|
D----9----8-----5----6-----3----5-----3-----4-----1----8--------|
A----9----x-----4----x-----2----x-----4-----x-----0----6--------|
E----7----6-----x----4-----x----3-----3-----2-----x----x--------|

Intro (Bm):

E-----0---------|-----2---0-----|-----0---------|-------------|
B---------3---2-|-------0---0-2-|---------3---2-|-------------|
G-------4---4---|---0-----------|-------4---4---|-----3---4-6-|
D---4-----------|---------------|---4-----------|---2---2-----|
A-2-------------|-2-------------|-2-------------|-------------|
E---------------|---------------|---------------|-2-----------|

E-----0---------|-----2---0-----|-----0---------|----------------|
B---------3---2-|-------0---0-2-|---------3---2-|----------------|
G-------4---4---|---0-----------|-------4---4---|-----3---4-6s11-|
D---4-----------|---------------|---4-----------|---2---2--------|
A-2-------------|-2-------------|-2-------------|----------------|
E---------------|---------------|---------------|-2--------------|

Verse 1 :

Bm         Bb_F#
disini kau dan aku
 
B        Em
terbiasa bersama
 
Em6    F#       Bm
menjalani kasih sayang
 
Em6        F#
bahagia ku denganmu

Verse 2 :

Am            G#_E
pernahkah kau menguntai
 
A           Dm
hari paling indah

Dm6   E      Am
Ku ukir nama kita berdua

Dm6    E
Disini surga kita

Chorus 1 :

Am                  Dm
bila kita mencintai yang lain

G             G#_E    Am
mungkin kah hati ini akan tegar

F              Dm
sebisa mungkin tak akan pernah

Dm6              E
sayang ku akan hilang

Chorus 2 :

Am
if u love somebody
         Dm
could we be this strong

G               G#_E              Am
i will fight to win our love will conquer all

F                     Dm
Wouldn’t risk my love even just one night

Dm6                      E
our love will stay in my heart

Bridge :

Fm           Bbm
my heart....

G_D#  C  Fm

C#  Bbm  Bbm6  C  D

Verse 2 (diff chords) :

Gm            F#_D
pernahkah kau menguntai
 
G           Cm
hari paling indah

Cm6   D      Gm
Ku ukir nama kita berdua

Cm6    D
Disini surga kita

Chorus 1 (diff chords) :

Gm                  Cm
bila kita mencintai yang lain

F             F#_D    Gm
mungkin kah hati ini akan tegar

D#              Cm
sebisa mungkin tak akan pernah

Cm6              D    G#_E
sayang ku akan hilang aaaaaa

Am                  Dm
bila kita mencintai yang lain

G             G#_E    Am
mungkin kah hati ini akan tegar

F              Dm
sebisa mungkin tak akan pernah

Dm6              E
sayang ku akan hilang

Chorus 2 :

Am
if u love somebody
         Dm
could we be this strong

G               G#_E              Am
i will fight to win our love will conquer all

F                     Dm
Wouldn’t risk my love even just one night

Dm6                      E
our love will stay in my heart

Am           F  Dm  E
my heart...  Ohhhh

Am           F  Dm  E
my heart...  Ohhhh

Am
my heart...


#Malaykord



Title: Irwansyah - My Heart Chord
Artist: Irwansyah
Review:
Author:
Rate: 4 dari 5
Posted On:


✓ Jika ada sebarang masalah tentang chord lagu diatas sila buat aduan pada Form Report Chord yang disediakan.[REPORT CHORDS]



Irwansyah - Camelia Chord



Irwansyah - Camelia Chord

Home > > > Irwansyah - Camelia Chord


Em                B
Camelia.. maafkan lah aku..
          Am           B         Em
Karena ku tak bisa.. temani tidurmu
Em                B
Camelia.. lupakanlah aku...
          Am         B          Em
Jangan pernah lagi.. kau temui aku..

B                Em
Kau.. wanita terhebat
B                           Em      
Yang pernah.. singgah di hatiku

B                 Em
Kau.. wanita yang tegar..
B                      Em
Aku mohon.. lupakanlah aku..

*
                        Am
Sudahlah jangan menangis lagi..
D                    G
Ku rasa cukup sampai di sini..
     C            Am
Mungkin di suatu saat nanti..
      B                 Em
Kau temui cinta yang sejati..

 Em                 Am
Sudah cepat lupakanlah aku..
D                      G
Jangan pernah ungkit masa lalu..
C                    Am
Ku takut kekasih ku pun tahu..
      B                     Em
Kau pernah menjadi simpanan ku.. Camelia


#Malaykord



Title: Irwansyah - Camelia Chord
Artist: Irwansyah
Review:
Author:
Rate: 4 dari 5
Posted On:


✓ Jika ada sebarang masalah tentang chord lagu diatas sila buat aduan pada Form Report Chord yang disediakan.[REPORT CHORDS]



Irwansyah - Ada Cinta Chord



Irwansyah - Ada Cinta Chord

Home > > > Irwansyah - Ada Cinta Chord


Intro :

E-------11----11--|-14---------12---|--11--------9----|-9---------11----|
B----------14---11|-----------------|-----------------|----12---9-------|
G-----------------|---------13------|12--------9------|-----------------|
D-----------------|-----------------|-----------------|-----------------|
A-----------------|-----------------|-----------------|-----------------|
E-----------------|-----------------|-----------------|-----------------|

E-------11----11--|-14---------12---|--11--------9----|--18--------16---|
B----------14---11|-----------------|-----------------|-----------------|
G-----------------|---------13------|12--------9------|18----------16---|
D-----------------|-----------------|-----------------|-----------------|
A-----------------|-----------------|-----------------|-----------------|
E-----------------|-----------------|-----------------|-----------------|

E--16-------------|
B-----------------|
G--16-------------|
D-----------------|
A-----------------|
E-----------------|

Verse :

E-----------------|-----------------|-----------------|-----------------|
B---------12------|--------11-------|--------11-------|--------9--------|
G------8----------|-----8-----------|-----8-----------|-----6-----------|
D-----------------|-----------------|-----------------|-----------------|
A---11------------|--10-------------|--9--------------|--8--------------|
E-----------------|-----------------|-----------------|-----------------|

E----------4------|----------6------|----------6------|----------4------|
B--------5--------|------5----------|------4----------|------2----------|
G------6----------|----6---6--------|----4---4--------|----1---1--------|
D----6------------|--5--------------|--4--------------|--3--------------|
A--4--------------|-----------------|-----------------|-----------------|
E-----------------|-----------------|-----------------|-----------------|

E----------4------|--7-----7-6------|
B------2----------|--4---4----------|
G----1---1--------|----4-----6------|
D--2--------------|-----------------|
A-----------------|--6--------------|
E-----------------|-----------------|

E-----------------|-----------------|-----------------|-----------------|
B---------12------|--------11-------|--------11-------|--------9--------|
G------8----------|-----8-----------|-----8-----------|-----6-----------|
D-----------------|-----------------|-----------------|-----------------|
A---11------------|--10-------------|--9--------------|--8--------------|
E-----------------|-----------------|-----------------|-----------------|

E----------4------|-----------------|-----------------|-----------------|
B--------5--------|----------2------|--------5-4------|--------7-7------|
G------6----------|------3----------|------4---4------|--------8-8------|
D----6------------|----4---4--------|----4------------|------------9-8--|
A--4--------------|--1--------------|--2--------------|------9----------|
E-----------------|-----------------|-----------------|-----------------|

E----------4------|-----------------|---------6-------|--7--------------|
B--------4--------|----------4------|-----------------|-----------------|
G------4----------|------6----------|------8--6---\8--|-----------------|
D----6------------|----5---5--------|---6-------------|-----------------|
A-----------------|--6--------------|-----------------|-----------------|
E--0--------------|-----------------|-----------------|-----------------|

Chorus :

E---------4-------|-----------------|---------2-------|---------4-------|
B-------5---5-----|---------2-------|-------4---4-----|-----0-----------|
G-----6-------6---|-------3---3-----|-----4-------4---|-------3---------|
D---6-----------6-|-----4-------4---|---4-----------4-|-----------------|
A-4---------------|---4-----------4-|-2---------------|---2-------------|
E-----------------|-2---------------|-----------------|-0---------------|

E-----------------|-----------------|-----------------|-----------------|
B-------5-------2-|-------5--4------|-----------------|---------4-------|
G-----6-------3---|-----4----4------|-------8-6-------|-----6-------6---|
D---6-------4-----|---4-------------|-----6---6-------|---5---5---5-----|
A-4-------1-------|-2---------------|---7-------------|-6---------------|
E-----------------|-----------------|-6---------------|-----------------|

E---------4-------|-----------------|---------2-------|---------4-------|
B-------5---5-----|---------2-------|-------4---4-----|-----0-----------|
G-----6-------6---|-------3---3-----|-----4-------4---|-------3---------|
D---6-----------6-|-----4-------4---|---4-----------4-|-----------------|
A-4---------------|---4-----------4-|-2---------------|---2-------------|
E-----------------|-2---------------|-----------------|-0---------------|

E---------4-------|---------4-------|----------4--6--4|-----------------|
B-------5---------|-----4-----------|----4---4--------|---------5-------|
G-----6-----------|---4---4---------|--4---4----------|-----6-----------|
D---6-------------|-----------------|-----------------|---5---5---------|
A-4---------------|-2---------------|6----------------|-6---------------|
E-----------------|-----------------|-----------------|-----------------|

E---------4-------|-----------------|
B-----------4-----|-------2---------|
G-----4-------4---|-----3-----------|
D-------6-------6-|---4-----4-------|
A---6-------------|-1---------------|
E-4---------------|-----------------|

E---------2-------|-----------------|-------2---------|-------4---------|
B-----3-----------|-------7---------|-----3-----------|-----5-----------|
G-------4---------|-----6-----------|-----------------|---4-------------|
D---4-------------|---4-------------|---4-------------|-6---------------|
A-2---------------|-----------------|-0---------------|-----------------|
E-----------------|-6---------------|-----------------|-----------------|

E---------0-------|-----------------|-------2---------|-2---------------|
B-----0-----------|-------3-2-------|-----2---2-------|-2-------5\7-----|
G-------7---------|-----2-----------|---2-------------|-2-----------7-6-|
D---5-------------|---2---4-2-------|-0---------------|-0---------------|
A-7---------------|-0---------------|-----------------|-----------------|
E-----------------|-----------------|-----------------|-----------------|

E-----------------|-------2---------|-------------7-9-|-10--------------|
B-------7---------|-----2-----------|-------2-3-2-----|-----------------|
G-4---4-------6p4-|-3---------------|-----4-----------|-----------------|
D---5-------------|---4-------------|---4-------------|-----------------|
A-----------------|-----------------|-2---------------|-----------------|
E-----------------|-----------------|-----------------|-----------------|

E---------0-------|-----------------|---------5-------|---------3-------|
B-----0-----------|-------3-2-------|-------7---------|-------3---------|
G-------7---------|-----2-----------|-----6-----------|-----4-----------|
D---5-------------|---2---4-2-------|---7-------------|---5-------------|
A-7---------------|-0---------------|-5---------------|-----------------|
E-----------------|-----------------|-----------------|-3---------------|

E-----------------|-----------------|---------2-------|-------------7910|
B-10-8-7----------|-8-7-5-----------|-----3-----------|-5-----5---78----|
G--------8--------|-------7---------|---4---4---------|-----4---67------|
D-----------------|-----------------|-5---------------|-5-5-------------|
A-----------------|-----------------|-----------------|-----------------|
E-----------------|-----------------|-----------------|-----------------|

E---------0-------|------------12-10|-9---------------|---------2-------|
B-------3---3-----|-------3-2-------|-----------------|-----3-----------|
G-----4-------4---|-----2-----------|-----------------|---4---4---------|
D---5-----------5-|---2---4-2-------|-----------------|-5---------------|
A-----------------|-0---------------|-----------------|-----------------|
E-0---------------|-----------------|-----------------|-----------------|

E---------0-------|---------2-------|---2---2---2---2-|---2---2---2---2-|
B-------3---------|-----3-----------|-----------------|-----------------|
G-----4-----------|---4---4---------|-----4-------4---|-----3-------3---|
D---5-------------|-4---------------|-4-------4-------|-4-------4-------|
A-----------------|-----------------|-----------------|-----------------|
E-0---------------|-----------------|-----------------|-----------------|

Interlude :
G#m Eb F# C# E B G Ab A#
Bm F# Bm B Em Bm G G# A A# B

E---------0-------|-----------------|---------5-------|---------2-------|
B-------3---3-----|-------3-2-------|-------7---7-----|-----3-----------|
G-----4-------4---|-----2-----------|-----6-------6---|---4---4---------|
D---5-----------5-|---2---4-2-------|---7-----------7-|-5---------------|
A-----------------|-0---------------|-5---------------|-----------------|
E-0---------------|-----------------|-----------------|-----------------|

E-----------------|---------5-------|---------2-------|-----------------|
B-------3-------2-|-------7---7-----|-------3---3-----|-------5-----7---|
G-----4-------2---|-----6-------6---|-----4-------4---|-----6-----4---4-|
D---5-------2-----|---7-----------7-|---4-----------4-|---7-------------|
A---------4-------|-5---------------|-2---------------|-4-------6-------|
E-0---------------|-----------------|-----------------|-----------------|

E---------4-------|-----------------|---------2-------|---------4-------|
B-------5---5-----|---------2-------|-------4---4-----|-----0-----------|
G-----6-------6---|-------3---3-----|-----4-------4---|-------3---------|
D---6-----------6-|-----4-------4---|---4-----------4-|-----------------|
A-4---------------|---4-----------4-|-2---------------|---2-------------|
E-----------------|-2---------------|-----------------|-0---------------|

E-----------------|-----------------|-----------------|-----------------|
B---------5-------|-----------------|---------8-------|-----------------|
G-----6-------6---|---------8-------|-----8-------8---|-----6---8-------|
D---6---6---6---6-|-----9------9----|---9---9---9---9-|---8---8---------|
A-4---------------|---9---9--9---9--|-6-------6-------|-6-------6-------|
E-----------------|-7---------------|-----------------|-----------------|

E-----------------|-----------------|
B---------4-------|---9---7---5---4-|
G-----4-------4---|---8---6---4---3-|
D-------6---6---6-|-----------------|
A---6-------------|-----------------|
E-4---------------|-----------------|

E-----------------|-----------------|-----------------|---------4-------|
B---------5-------|---------2-------|---------4-------|-----------------|
G-----6-------6---|-----3-------3---|-----4-------4---|-----0-----------|
D---6---6---6---6-|---4---4---4---4-|---4---4---4---4-|-------3---------|
A-4---------------|-1---------------|-2---------------|---2-------------|
E-----------------|-----------------|-----------------|-0---------------|

E-----------------|---------4-------|-----------------|-----------------|
B---------5-------|---------5-------|---------9-------|---------9-------|
G-----6-------6---|-----6-------6---|-----8-------8---|-----8-----------|
D---6---6---6---6-|---6---6---6---6-|---9---9---9---9-|---9---9---------|
A-4---------------|-4---------------|-----------------|-----------------|
E-----------------|-----------------|-7---------------|-7---------------|

E-----------------|-----------------|----------7---6--|-4---------------|
B---------6-------|-----------------|-----4-----------|-----------------|
G-----8-------8---|-----6---8-------|---4---6\8--6---4|-----------------|
D---9---9---9---9-|---8---8---------|-6---------------|-----------------|
A-6---------------|-6---------------|-----------------|-----------------|
E-----------------|-----------------|-----------------|-----------------|

Outro :

E----------7------|-----------------|------6----------|--4--------------|
B------5----------|-----------------|-----------------|-----------------|
G-----------------|-----6---8-------|--6-----------4--|-----------------|
D----6---6--------|---8---8---------|-----------------|-----------------|
A--4--------------|-6---------------|-----------------|-----------------|
E-----------------|-----------------|--4--------------|-----------------|

2nd guitar

Intro :

E-----------------|-----------------|-------4---------|--------4--4-----|
B-----------------|--------5--------|-----4----------4|------4----------|
G-----------------|------4----------|---4----------6--|----4------------|
D-----------------|----6------------|------------5----|--6--------------|
A-----------------|--4--------------|-6--------6------|-----------------|
E-----------------|-----------------|-----------------|-----------------|


E-----------------|-----------------|-------4---------|-----------------|
B--------9-9------|--------5--------|-----4----------4|---------4-------|
G------8----------|------4----------|---4----------6--|-------4---4---4-|
D----9------------|----6------------|------------5----|-----6-------6---|
A--8--------------|--4--------------|-6--------6------|---6-------------|
E-----------------|-----------------|-----------------|-4---------------|

E--4--------------|
B--4--------------|
G--4--------------|
D--6--------------|
A-----------------|
E-----------------|

Last chorus :

E---------9--11---|--12----11--9----|-----------7--9--|-11------9--7----|
B-----------------|-----------------|-----------------|-----------------|
G-----------------|-----------------|-----------------|-----------------|
D-----------------|-----------------|-----------------|-----------------|
A-----------------|-----------------|-----------------|-----------------|
E-----------------|-----------------|-----------------|-----------------|

E-----------------|-----------------|-----------------|--------------11-|
B-----------------|-----------------|-----------------|-----------12----|
G-----------------|-----------------|-----------------|--------13-------|
D-----------------|-----------------|-----------------|-----------------|
A-----------------|-----------------|-----------------|-----------------|
E-----------------|-----------------|-----------------|-----------------|

E----11---12-11--9|-11--------------|-----------------|-----------------|
B-----------------|-----------------|-----------------|-----------------|
G-----------------|-----------------|-----------------|-----------------|
D-----------------|-----------------|-----------------|-----------------|
A-----------------|-----------------|-----------------|-----------------|
E-----------------|-----------------|-----------------|-----------------|

(Last part tremolo)

3rd guitar

End of verse (before start of 1st chorus)


E----9-----11-----|
B-----------------|
G-----------------|
D-----------------|
A-----------------|
E-----------------|

Before the interlude (when Syah is singing)

E----10-----9-----|
B-----------------|
G-----------------|
D-----------------|
A-----------------|
E-----------------|

Cinta terasa ada (2nd chorus, when Syah and Acha are both singing)

E-------4---6-----|----7------------|
B---4-------------|-----------------|
G-----------------|-----------------|
D-----------------|-----------------|
A-----------------|-----------------|
E-----------------|-----------------|


#Malaykord



Title: Irwansyah - Ada Cinta Chord
Artist: Irwansyah
Review:
Author:
Rate: 4 dari 5
Posted On:


✓ Jika ada sebarang masalah tentang chord lagu diatas sila buat aduan pada Form Report Chord yang disediakan.[REPORT CHORDS]



Ipang - Tak Ada Gantinya Chord



Ipang - Tak Ada Gantinya Chord

Home > > > Ipang - Tak Ada Gantinya Chord


Intro :
C F G F
Am Em F G

     C         F
Bagaimana ku bisa
   G          F
Berpaling darimu
Am              Em
Sekian lama ku mencari
  Dm         G
Separuh jiwaku

   C          F
Ku mau menunggu
    G            F
Tak pernah berhenti
   Am          Em
Sampai suatu saat nanti
    Dm          G
Kau kan menyadari

Chorus :

   C            F
Ku ingin kau tahu
        Em       Dm G
Takkan ada habisnya
   Am          Em
Ku masih milikki cinta
  Dm    G           C
Melebihi yang kau kira

C               Dm
Hanyalah senyummu
         G          Dm
Yang menghapus rinduku
  Am          Em
Telah lama tak ku jumpa
    Dm         G
Menghilang dariku

 C           Dm
Akan ku lakukan
 Em           Dm
asal kau kembali
   Am          Em
Ku tak sanggup sendiri
  Dm         G
lebih lama lagi

Chorus :

   C            F
Ku ingin kau tahu
        Em       Dm G
Takkan ada habisnya
   Am          Em
Ku masih milikki cinta
    F               G
Melebihi yang kau kira
       
   C         F
Ku ingin kau tahu
          Em     Dm G  
Kau tetap di hatiku
    Am             Em
Ada yang harus kau mengerti
D7          G        C
Kau takkan ada gantinya

F
Yang aku inginkan hanyalah dirimu
Dm                 C
bersamaku selamanya
F                 Fm
Bantu aku pergi dari
                          G
sepi yang ku rasa menyakitkan

Solo :
C Dm Em Dm Am Em F G

Chorus :

   C            F
Ku ingin kau tahu
        Em       Dm G
Takkan ada habisnya
   Am          Em
Ku masih milikki cinta
    F               G
Melebihi yang kau kira
       
   C         F
Ku ingin kau tahu
          Em     Dm G  
Kau tetap di hatiku
    Am             Em
Ada yang harus kau mengerti
D7          G        C
Kau takkan ada gantinya

C F G F


#Malaykord



Title: Ipang - Tak Ada Gantinya Chord
Artist: Ipang
Review:
Author:
Rate: 4 dari 5
Posted On:


✓ Jika ada sebarang masalah tentang chord lagu diatas sila buat aduan pada Form Report Chord yang disediakan.[REPORT CHORDS]



Ipang - Tentang Kita Chord



Ipang - Tentang Kita Chord

Home > > > Ipang - Tentang Kita Chord


Intro :
C D Em (4x)

C       D           Em
Sekilas tentang dirimu Yang lama ku nanti
C  D        Em
memikat hatiku jumpamu pertama kali
C          D          Em
janji yang pernah terucap tuk satukan hati kita
C          D          Em
namun tak pernah terjadi

Chorus :

    D            C      D
Mungkinkah masih ada waktu
     G       D/F#   Em
yang tersisa untukku
                 C       D        Em
mungkinkah masih ada cinta di hatimu

              C     D
Andaikan saja aku tahu
          G     D/F#   Em
kau tak hadirkan cintamu
             C    D           Em
inginku melepasmu dengan pelukan

C     D               Em                  
Sesal yang datang selalu takkan membuatmu kembali
C          D                  Em
Maafkan aku yang tak pernah tahu
                D                  C
hingga semuanya pun kini tlah berlalu
D        Em  C D        Em
Maafkan aku    Maafkan aku

Solo :
C D Em Em-D (4x)

Chorus :

    D            C      D
Mungkinkah masih ada waktu
     G       D/F#   Em
yang tersisa untukku
                 C       D        Em
mungkinkah masih ada cinta di hatimu

              C     D
Andaikan saja aku tahu
          G     D/F#   Em
kau tak hadirkan cintamu
             C    D           Em
inginku melepasmu dengan pelukan

    D            C      D
Mungkinkah masih ada waktu
     G       D/F#   Em
yang tersisa untukku
                 C       D        Em
mungkinkah masih ada cinta di hatimu

              C     D
Andaikan saja aku tahu
          G     D/F#   Em
kau tak hadirkan cintamu
             C    D           Em
inginku melepasmu dengan pelukan
   D         C    D           Em
inginku melepasmu dengan pelukan
   D         C    D           Em
inginku melepasmu dengan pelukan


#Malaykord



Title: Ipang - Tentang Kita Chord
Artist: Ipang
Review:
Author:
Rate: 4 dari 5
Posted On:


✓ Jika ada sebarang masalah tentang chord lagu diatas sila buat aduan pada Form Report Chord yang disediakan.[REPORT CHORDS]



Ipang - Tanpamu Chord



Ipang - Tanpamu Chord

Home > > > Ipang - Tanpamu Chord


Intro :
F#m E D (3x)
C#m Bm D

A               E/G#       D            E
kalau seperti ini aku harus bagaimana
A                  E/G#     D               E
tak mengerti tak punya cara untuk menghadapinya
A               E/G#       D            E
belum siap ku menerima semua yang terjadi
A                E/G#     D               E
tiba-tiba saja kamu pergi tak bersamaku lagi

Bm      C#m        D        E
kenyataan belum tentu sama dengan harapan
Bm      C#m                D                  E
tak sedikit cinta yang berubah menjadi sangat menyakitkan

Chorus :

  A           E              Bm D
ketika kau pergi tinggalkan aku
         A          E               Bm      
tak lagi peduli sanggupkah aku tanpamu tanpamu

F#m E D Bm

A                     E       D               E
kau pikir aku sanggup sendiri dan bisa menerima
A                   E       D                  E
semuanya yang telah terjadi bisa membuat aku gila

Bm      C#m        D        E
kenyataan belum tentu sama dengan harapan
Bm      C#m                D                  E
tak sedikit cinta yang berubah menjadi sangat menyakitkan

Chorus :

  A           E              Bm D
ketika kau pergi tinggalkan aku
         A          E               Bm      D
tak lagi peduli sanggupkah aku tanpamu tanpamu
  A           E           Bm D
ketika kau pergi jauh dariku
         A          E                  Bm D      
tak ada lagi yang bisa ku lakukan tanpamu tanpamu

Solo :
F#m E D C#m Bm D (2x)

Bm      C#m        D        E
kenyataan belum tentu sama dengan harapan
Bm      C#m                D                  E
tak sedikit cinta yang berubah menjadi sangat menyakitkan

Chorus :

  A           E              Bm D
ketika kau pergi tinggalkan aku
         A          E               Bm      D
tak lagi peduli sanggupkah aku tanpamu tanpamu
  A           E           Bm D
ketika kau pergi jauh dariku
         A          E                  Bm      
tak ada lagi yang bisa ku lakukan tanpamu
D    A E     Bm D
tanpamu tanpamu
     A E     Bm D A
tanpamu yea yeah


#Malaykord



Title: Ipang - Tanpamu Chord
Artist: Ipang
Review:
Author:
Rate: 4 dari 5
Posted On:


✓ Jika ada sebarang masalah tentang chord lagu diatas sila buat aduan pada Form Report Chord yang disediakan.[REPORT CHORDS]



Ipang - Serdadu Kumbang Chord



Ipang - Serdadu Kumbang Chord

Home > > > Ipang - Serdadu Kumbang Chord


Intro :
D G A G (2x)

D           A      G
terbang tinggi ke awan
         A         G
mungkin ada yang bisa ku temukan
D          A     G
menyeberangi ilalang
D        A         G
walaupun jauh yang harus ku tempuh

Intro :
D G A G

D       A         G
jalan masihlah panjang
D        A       G
banyak keinginan yang dilupakan
D        A       G
masih harus berjuang
D      A         G              D
percayalah masih ada banyak harapan

Bm            G    D          A
terbanglah terbang raihlah mimpi
Bm            G  D          A       D     G A G
jangan berhenti terbanglah serdadu kumbang

maju serdadu kumbang
jangan menyerah rintangan menghalang
D        A        G
tenang jalani semua
D      A       G              D
percayalah harapan itu masih ada

Bm            G    D          A
terbanglah terbang raihlah mimpi
Bm            G  D             A
jangan berhenti terbanglah tinggi
Bm            G    D          A
terbanglah terbang raihlah mimpi
Bm            G  D          A      
jangan berhenti terbanglah serdadu kumbang

Interlude :
Bm G D A (4x)
D G A G

D             G    
nananana na nana na nana na
A             G
nananana na nana na nana na
        Bm   G  D  A
serdadu kumbang    yeah
Bm     G       D      A
nananana na nana na nana na
Bm     G   D       A  Bm      G  D A
terbanglah terbanglah terbanglah

G


#Malaykord



Title: Ipang - Serdadu Kumbang Chord
Artist: Ipang
Review:
Author:
Rate: 4 dari 5
Posted On:


✓ Jika ada sebarang masalah tentang chord lagu diatas sila buat aduan pada Form Report Chord yang disediakan.[REPORT CHORDS]



Ipang - Sekali Lagi Chord



Ipang - Sekali Lagi Chord

Home > > > Ipang - Sekali Lagi Chord


Intro :
C F C F

C                                F
Kalau saja aku masih punya kesempatan yang sama
 C                                    F
Atau semua yang pernah terjadi bisa terulang lagi
Am               G           F  Em
Tapi ternyata kesempatan yg ada
  D           G
Hanya sekali...

C                                   F  
Saat ini masih kutunggu datangnya keajaiban
   C                                 F
Yang mungkin saja bisa memberiku waktu satu kali lagi
Am            G              F   Em
Seandainya masih bisa kudapatkan
  D                 G
Sekali lagi... satu kali lagi...

Reff :

  C                  G          Am       Em
Masih tertunda dan belum semua kukatakan
  F                 Em              Dm       G
Biar kutunggu sampai kau kembali lagi di sini
  C                  G            Am          Em
Harus kau dengar semua yg harus kau dengarkan
    F            G          C
Isi hatiku yg belum kusampaikan

F                                  G
Ternyata tak semudah itu keinginan bisa terjadi
Dm                                        G
Tapi kuberharap semoga masih ada kesempatan sekali lagi ...

Ulang Reff


#Malaykord



Title: Ipang - Sekali Lagi Chord
Artist: Ipang
Review:
Author:
Rate: 4 dari 5
Posted On:


✓ Jika ada sebarang masalah tentang chord lagu diatas sila buat aduan pada Form Report Chord yang disediakan.[REPORT CHORDS]



Ipang - Sahabat Kecil Chord



Ipang - Sahabat Kecil Chord

Home > > > Ipang - Sahabat Kecil Chord


Intro :
A D (2x)

A      Bm     D
baru saja berakhir
A        Bm   D E
hujan di sore ini
 C#m         D
menyisakan keajaiban
 Bm     C#m      D  E  F#m
kilauan indahnya pelangi
   
A          Bm      D  
tak pernah terlewatkan
A          Bm    D   E
dan tetap mengagumiNya
C#m          D
kesempatan seperti ini
Bm       C#m    D E A
tak akan bisa dibeli

E-D             C#m
bersamamu kuhabiskan waktu
       Bm              A E
senang bisa mengenal dirimu
  D               C#m
rasanya semua begitu sempurna
       Bm        C#m    Dm
sayang untuk mengakhirinya

Interlude :
A A
A E D
F#m D E

A       Bm     D  
lawan keterbatasan
  A       Bm       D  E
walau sedikit kemungkinan
   C#m            D
takkan menyerah untuk hadapi
Bm           C#m     D E      
hingga sedih tak mau datang lagi...

A D A D

D             C#m
bersamamu kuhabiskan waktu
       Bm              A E
senang bisa mengenal dirimu
  D               C#m
rasanya semua begitu sempurna
       Bm        C#m    Dm
sayang untuk mengakhirinya

          A
janganlah berganti
          A
janganlah berganti
          A
janganlah berganti
         F#m  D   E
tetaplah seperti ini

A E D
A C#m D
A E D
A C#m D E

A D (4x)
A E D
Bm


#Malaykord



Title: Ipang - Sahabat Kecil Chord
Artist: Ipang
Review:
Author:
Rate: 4 dari 5
Posted On:


✓ Jika ada sebarang masalah tentang chord lagu diatas sila buat aduan pada Form Report Chord yang disediakan.[REPORT CHORDS]



Ipang - Nyali Chord



Ipang - Nyali Chord

Home > > > Ipang - Nyali Chord


Intro :
E B-E  D A-D (4x)

           E B-E  D A-D
Pernah kah berpikir
           E B-E  D A-D
Yang bakal terjadi
        E          B-E      
Kalau sedikit yang peduli
D   A-D         E B-E  D A-D
Apa jadinya negeri ini

          E B-E  D A-D
Ngga bisa lagi nunggu
         E B-E  D A-D
Kerjakan yang kita mampu
       E          B-E  
Jangan kebanyakan bicara
D      A-D            E  B-E D A-D
Ngga bakal ngerubah keadaanya

Chorus :

       E                Bm
Pasang badan lagi pake nyali lagi
      D                             E
Tiap jengkal negeri ini Kita pemiliknya
       E                Bm
Pasang badan lagi pake nyali lagi
      D                             E
Tiap jengkal negeri ini Kita pemiliknya

       E B-E  D A-D
Dengar berita
       E B-E  D A-D
mereka mencuri
          E         B-E
Kita ngga boleh diam aja
D    A-D        E    B-E D A-D
Mereka ambil seenaknya

        E    B-E D A-D
Kan ada batasnya
        E    B-E D A-D
Sama toleransi
      E          B-E
Sudah cukup kita mengalah
D    A-D
Kita ngga punya harga diri

Chorus :

       E                Bm
Pasang badan lagi pake nyali lagi
      D                             E
Tiap jengkal negeri ini Kita pemiliknya
       E                Bm
Pasang badan lagi pake nyali lagi
      D                             E
Tiap jengkal negeri ini Kita pemiliknya

D E  D E

D                        E
Berhentilah bertanya Apa yang kita dapatkan
D                     B
Sudah cukupkah dengan semua yang kita korbankan

             E
Untuk tanah ini
              Bm
Untuk negeri ini
     D                            E
Cuma kita yang berhak jadi pemiliknya

             E
Untuk tanah ini
              Bm
Untuk negeri ini
     D                            E
Cuma kita yang berhak jadi pemiliknya

E   Bm     D    E
Ooo ouuhh oooo yeeaa yeea yeeahhh
E   Bm    
Ooo ouuhh
D                             E
kita yang pantas jadi pemiliknya
              E    D E
Pasang badan lagi
             E   D E
Pake nyali lagi

E Bm D E (2x)


#Malaykord



Title: Ipang - Nyali Chord
Artist: Ipang
Review:
Author:
Rate: 4 dari 5
Posted On:


✓ Jika ada sebarang masalah tentang chord lagu diatas sila buat aduan pada Form Report Chord yang disediakan.[REPORT CHORDS]



Ipang - Menunggu Kesempatan Chord



Ipang - Menunggu Kesempatan Chord

Home > > > Ipang - Menunggu Kesempatan Chord